Hide Commercials
Did you know?
No 'did you know', Add an info for this song
Spin Doctors - Two Princes Chords
Ranking: 6.02 Sign Up and Rank!

Spin Doctors - Two Princes



D     Bm              A              
One, two,  princes kneel   before you
 G                       
(That's what I said, now)
 D        Bm          A       
Princes, princes who adore you
      G             
(Just go ahead, now)
 D        Bm               A      
One has   diamonds in his  pockets
        G               
(That's some bread, now)
D       Bm  A        G                 
This one, he  wants to buy you  rockets
 G                      
(Ain't in his head, now)

D       Bm              A           
This one, he  got a princely  racket
  G                      
(That's what I said, now)
D       Bm             A           
Got some big  seal upon his  jacket
 G                      
(Ain't in his head, now)
D          Bm              A
Marry him,  your father will
           G                    
condone you (How bout that, now)
D         Bm             A 
Marry me,  your father will
             G                     
disown you  (He'll eat his hat now)

G                D        
Aww, marry him or marry me
D                                            
I'm the one that loves you baby can't you see?
G                                   
Ain't got no future or a family tree
    A                                          
But I know what a prince and lover ought to be,
A                                            
I know what a prince and lover ought to be...

Solo:

E|----------------------------|---------------------|
B|----------------------------|---------------------|
G|----------------------------|---------------------|
D|------0-0-0--3b4-0-0-0------|--0-0-0-0-0--3b4-----|
A|--/5--------------------/5--|-----------------/5--|
E|----------------------------|---------------------|

E|-----------------------|----------------------------|
B|-----------------------|----------------------------|
G|-----------------------|-5p0--5--5--7--7\-----------|
D|--0-0-0-0--3b4-0-5-0-7-|-------------------12-14p12-|
A|-----------------------|----------------------------|
E|-----------------------|----------------------------|

E|-----------------------------------|
B|-------15----12--12--12--15--12b14-|
G|-----------------------------------|
D|-14b16-----------------------------|
A|-----------------------------------|
E|-----------------------------------|

E|--------------------------------------|-----------------------------------|
B|-------------12b--13--12--------------|-----------------------------------|
G|-14--14--14---------------14----------|-----------------------------------|
D|--------------------------------14b16-|--12-12-12--------------12---------|
A|--------------------------------------|------------14-14-14-14------14b16-|
E|--------------------------------------|-----------------------------------|

E|--------------------------------------|-----------------------------------|
B|--------------------------------------|------15---------15----------------|
G|--------------------------------12----|--14b-----12-14b----14-12---12-14b-|
D|---------------------12--14p12----12--|--------------------------14-------|
A|-14b-12-0-0-10-12/14------------------|-----------------------------------|
E|--------------------------------------|-----------------------------------|

E|----------------------------------------------|
B|----------------------------------------------|
G|--14-13-12-10b--------------------------------|
D|---------------12-10-----------------------12-|
A|---------------------12-11-10-9---------5/----|
E|--------------------------------10--10\-------|

E|------------------------------------|--------------------------------|
B|------------------------------------|-17-------------------------17b-|
G|-------12----12-14-12-14b----12-16b-|----16-14----14-14----14-14-----|
D|-14-12----14------------------------|----------16-------16-----------|
A|------------------------------------|--------------------------------|
E|------------------------------------|--------------------------------|

E|-15--------------------------------|-----------------------------------|
B|-----17--15-------15----------17b--|-17b--17b--17b--17b--17b--15h17p15-|
G|-------------16b-----16---14-------|-----------------------------------|
D|-----------------------------------|-----------------------------------|
A|-----------------------------------|-----------------------------------|
E|-----------------------------------|-----------------------------------|

D      Bm                A         
Said if you  want to call me   baby
G                   
(Just go ahead, now)
    D      Bm                A      
And if you   want to tell me   maybe
    G               
(Just go ahead, now)
D        Bm          A         
If you   wanna buy me   flowers
 G                  
(Just go ahead, now)
    D        Bm                A    
And if you   want to talk for  hours
      G             
(Just go ahead, now)
If you like the way the song is edited, help us grow with your like please
More songs of Spin Doctors:
More songs from the category Rock:
Radiohead - Creep
Coldplay - Speed Of Sound
Scorpions - Send Me An Angel
The Lumineers - Ho Hey
Ed Sheeran - I See Fire