My Songs
My Songs
Hide Commercials
Did you know? No 'did you know', Add an info for this song
Limp Bizkit - Behind Blue Eyes Chords
Ranking: 5.82 Sign Up and Rank!

Limp Bizkit - Behind Blue Eyes




Song Editor: TAB4U Staff
Category: Rock Familiar Songs
Strumming:
To view the Strumming you must be a logged in userSign up \ Login
Reset
size
Intro & Bridge:

   Em              Em/G            Dadd9            
E|---------0---------------0---------------0-------|
B|-----------0---------------0---------3-----3---3-|
G|-------0-----0---------0-----0-----2---2-----2---|
D|-----2---------2-----0---------0-0---------------|
A|---2---------------2-----------------------------|
E|-0---------------3-------------------------------|

                   Cadd9                            
E|---------0---------------0---------------0-------|
B|-----3-----3---3-----3-----3---3-----3-----3---3-|
G|---2---2-----2---------0-----0---------0-----0---|
D|-0-----------------2---------------2-------------|
A|-----------------3---------------3---------------|
E|-------------------------------------------------|

   A9                                
E|---------0----------------0-------|
B|-----0-----0---0------0-----0---0-|
G|-------2-----2----------2-----2---|
D|---2----------------2-------------|
A|-0----------------0---------------|
E|----------------------------------|

Em                     G               Dadd9   
No one knows what it's like, to be the bad man,
          Cadd9      A9            
To be the sad man, behind blue eyes
Em                     G          Dadd9 
No one knows what it's like to be hated,
      Cadd9             A9       
To be fated, to telling only lies

Chorus:

       C      D                G    
But my dreams   they aren't as empty
      C         D        E   E/F  E
As my conscious seems to be        
       Bm          C     
I have hours, only lonely
           D                       A9 
My love is vengeance that's never free

Em                     G                  Dadd9   
No one knows what it's like to feel these feelings
       Cadd9           A9 
Like I do, and I blame you
Em                   G             Dadd9
No one bites back as hard on their anger
           Cadd9                    A9   
None of my pain and woe, can show through

Repeat Chorus

D            Bm       A        E   
When my fist clenches crack it open
         Bm         G       D   
Before I use it and lose my cool
       Bm    A            E       
When I smile tell me some bad news
         Bm        A          E   
Before I laugh and act like a fool

And if I swallow anything evil
Stick your finger down my throat
If I shiver please give me a blanket
Keep me warm let me wear your coat
Bridge:
A9 Em Em Cadd9 x2

No one knows what it's like, to be the bad man
To be the sad man, behind blue eyes

Ending:
Em Cadd9 A9 Em x2
If you like the way the song is edited, help us grow with your like please
More songs of Limp Bizkit:
More songs from the category Rock:
Linkin Park - Numb
Asaf Avidan - Reckoning Song
The Beatles - With a Little Help from My Friends
Travis - Baby One More Time
Arctic Monkeys - I Wanna Be Yours