My Songs
My Songs
Hide Ads »

Eagles - Hotel California

Intro:

   Bm         F#               A          E               
e|----------|----------------|-----------|-------------0-|
B|----------|----------------|-----------|---------------|
G|----------|----------------|-----------|-------1---1---|
D|------2-4-|-2-----0h2p0----|-----------|-----0---0-----|
A|-5--------|-------------4--|-4----5-7\-|2--2-----------|
E|----------|----------------|-----------|---------------|

   G                D              Em         F#         
e|-----------------|-------------|----------|-----------|
B|-----------------|-------------|----------|-----------|
G|-----------------|-------------|----------|-----------|
D|-----------------|---0---/4----|-2----4-5-|-4h5p4p2-4-|
A|-2----4---5--5-\-|4----0-----5-|----------|-----------|
E|-----------------|-------------|----------|-----------|
More songs of Eagles:
More songs from the category Rock:
Guns N' Roses - This I Love
Anouk - Nobody's Wife
Oasis - Don't Look Back in Anger
Queen - Bohemian Rhapsody
Aerosmith - Pink