Hide Commercials
Did you know?
No 'did you know', Add an info for this song
Lynyrd Skynyrd - Sweet Home Alabama Chords
Ranking: 5.78 Sign Up and Rank!

Lynyrd Skynyrd - Sweet Home Alabama



Intro:

e|---------------------------------------|
B|-------3-------------3-----------------|
G|---------2--------------0------------0-|
D|-0--0------0---------------0-----------|
A|--------------3p0h3--------------------|
E|------------------------------3p0h3----|

e|-------------------------------|
B|-------------------------3-----|
G|-------------2p0-----------2---|
D|-----0h2p0---------0--0------0-|
A|-0h2-------2-------------------|
E|-------------------------------|

e|---------------------------------------------|
B|--------3------------------------------------|
G|-----------0-----------0----0-2p0-0-4h0-0-5b-|
D|-------------0-------------------------------|
A|-3p0h3---------------------------------------|
E|----------------3p0h3------------------------|

e|-----------------------------------|
B|------3-----------3------------3---|
G|--------2-----------0----------0---|
D|-0-0------0-----------0--------0---|
A|-------------3-3---------------2---|
E|-------------------------3-3---3---|

e|-----------------|
B|-----------------|
G|-------------2p0-|
D|-----0h2h0-------|
A|-0h2-------2-----|
E|-----------------|

e|-----------------------------------------|
B|------3-----------3-----------3----------|
G|--------2-----------0---------0--------0-|
D|-0-0------0-----------0-------0------0---|
A|-------------3-3--------------2--0h2-----|
E|-------------------------3-3--3----------|

Verse:

e|--------2----------0-----------3-----------|
B|--------3----------3-----------3-----------|
G|--------2----------0-----------0---------0-|
D|-0--0---0----------2-----------0-------0---|
A|-------------3-3---3-----------2---0h2-----|
E|--------------------------3-3--3-----------|

D   Cadd9          G       D
Big wheels keep on turning  
D        Cadd9          G    D
Carry me home to see my kin.  
D       Cadd9           G         D
Singing songs about the southland  
D            Cadd9      G   
I miss'ole' 'bamy once again
G                       
(and I think it's a sin)

Bridge:

e|--------------------------------------------|
B|--------------------------------------------|
G|--------7--7---------5--5-------------0-----|
D|--------7--7---------5--5-----------0-------|
A|-7h8h9--------9s5/7---------7\--0h2---------|
E|------------------------------------------3-|

e|-----------------------------------------------|
B|-----------------------------------------------|
G|--------7--7---------5-5------------0----------|
D|--------7--7---------5-5----------0-----------2|
A|-7h8h9--------9s5/7-------7\--0h2---------0h2--|
E|--------------------------------------3--------|

D                    Cadd9       G        D
Well, I heard Mister Young sing about her  
D                 Cadd9        G       D
Well, I heard ole Neil put her down     
D                 Cadd9        G       D
Well, I hope Neil Young will remember,  
D          Cadd9               G            D
A southern man don't need him around anyhow  

Chorus:

D     Cadd9   G       D
Sweet home Alabama,    

e|-------------|
B|-------------|
G|-------------|
D|-----0h2p0---|
A|-0h2-------3-|
E|-------------|

D         Cadd9         G     D
Where the skies are so blue,   

e|--------------------------------------|
B|--------------------------------------|
G|----0-----0-----0------0-----0--------|
D|0h2---0h2---0h2----0h2---0h2----------|
A|--------------------------------3s5-5-|
E|--------------------------------------|

D     Cadd9   G       D
Sweet home Alabama,    

e|-------------|
B|-------------|
G|-------------|
D|-----0h2p0---|
A|-0h2-------3-|
E|-------------|

D         Cadd9          G   
Lord, I'm coming home to you.

Solo 1:
F C D Cadd9 G D Cadd9 G

D        Cadd9              G         F    C    D  
In Birmingham they love the Gov'nor   Boo  hoo  hoo
D          Cadd9             G    D
Now we all did what we could do.   
D        Cadd9        G          D
Now Watergate does not bother me. 
D         Cadd9             G                      D
Does your conscience bother you?  (tell the truth)  

Repeat Chorus

Solo 2:
D Cadd9 G D Cadd9 G x4

Repeat Bridge

D          Cadd9               G        D
Now Muscle Shoals has got the Swampers   
D                 Cadd9
And they've been known 
                  G       D
to pick a song or two      
D         Cadd9      G        D
Lord they get me off so much   
D            Cadd9                G     D
They pick me up when I'm feeling blue    
D                 
Now how about you?

Repeat Chorus x2

Solo Keyboard
If you like the way the song is edited, help us grow with your like please
More songs of Lynyrd Skynyrd:
More songs from the category Rock:
Leonard Cohen - I'm Your Man
David Bowie - Ziggy Stardust
The Beatles - Anna (Go To Him)
Neil Young - Heart Of Gold
Coldplay - A Sky Full Of Stars