Hide Commercials
Did you know?
No 'did you know', Add an info for this song
Radiohead - Inside My Head Chords
Ranking: 5.92 Sign Up and Rank!

Radiohead - Inside My Head



Category: Undefined
            Em           C         Am    
What do you want from me   now you got me
C          Em        C        Am         
Now my fingers bleed now they stare at me
C     Em         C Am C
I'm a coward now       
C  Em           C Am
I  hold my peace    

C       Em        C         Am         
Now you tie me up   to your feather bed
C     Em             C    Am      C   
And I twist and turn in a Chinese burn
    Em           C Am C
You won't let go       
C   Em            C Am
You won't let go      

Am               Em   G Am C Em G Am
You're inside my head               
  C       Em   G Am C Em G Am C
Inside my head                 

             Em           C         Am    
What do you want from me   now you got me
C      Em     C     Am          
Now my energy   you suck from me
C       Em      C Am C     Em        C Am C
And I'm holding on     for dear life       
      Em          C      Am             C
Quit smothering me  Quit laughing at me  
     Em          C  Am           C    
I've got a disease, an english disease
    Em         C Am C
It will not go       
C  Em         C Am
It will not go    

Am               Em   G Am C Em G Am
You're inside my head               
  C       Em   G Am C Em G Am C
Inside my head                 

Solo:

e|-------------------------------------------------------------------------|
B|-------------------------------------------------------------------------|
G|------------7b6-----------------------------------------------9x\--------|
D|--7b8~-----------8--7b8--7b8b7b8b7b8~---5--------------------------------|
A|------------------------------------------7----5-7-5-7-7-7---------------|
E|--------------------------------------------------------------------/12\-|

e|--------------------------------------------------------------------------|
B|--------------------------------------------------------------------------|
G|-7--9p7--9p7--9p7-9s11----7---9p7-9s11---12p11-12s14---12--14-12-14-12-14-|
D|------------------------9-------------------------------------------------|
A|--------------------------------------------------------------------------|
E|--------------------------------------------------------------------------|

e|-------------------------------------------------------------------|
B|-------------------------------------------------------------------|
G|--14p12h14p12h14p12---12-14-14b16--14p12h14--12-14-14b16--14p12h14-|
D|-------------------------------------------------------------------|
A|-------------------------------------------------------------------|
E|-------------------------------------------------------------------|

e|-----------------------------------------------------------------------|
B|-----------------------------------------14-14-14-14-14-14-15-15-15-15-|
G|-12-14-14b16----14p12h14b16--14p12h14----------------------------------|
D|-----------------------------------------------------------------------|
A|-----------------------------------------------------------------------|
E|-----------------------------------------------------------------------|

e|12-12-12-12-15-15-15--15-15-15-20-20-20-20-20-20-20-20-20-|
B|----------------------------------------------------------|
G|----------------------------------------------------------|
D|----------------------------------------------------------|
A|----------------------------------------------------------|
E|----------------------------------------------------------|

    Em           C    Am          
Whatever you put   in that syringe
C   Em              C Am         C
Whatever you really   said to him 
C    Em          C Am C   Em        C Am
He's sitting there      inside of me    
C       Em         C     Am       C
And you bother me, you possess me  
       Em         C  Am         C
You're there again, ahead of me  
    Em           C Am C
You won't let go       
C   Em            C Am
You won't let go      
Am               Em   G Am C Em G Am
You're inside my head               
  C       Em   G Am C Em G Am C
Inside my head                 
  C       Em   G Am C Em G Am C
Inside my head                 
  C       Em   G Am C Em G Am C Em
Inside my head                    
If you like the way the song is edited, help us grow with your like please
More songs of Radiohead:
High And Dry Creep No Surprises Karma Police
More songs from the category Undefined:
R.E.M. - Pop Song 89
Massive Attack - Unfinished Sympathy
Counting Crows - Accidentally in love
ABBA - Fernando
Red Hot Chili Peppers - Universally Speaking