My Songs
PubilcPrivate
My Songs
Full Access
Hide Ads
Anouk - Nobody's Wife - Learn Intro & Verses on the guitar
Scroll There
Scroll There

Intro & Verses on the guitar



E|-------0--------------------------------------|
B|-----0---0------3----------0-1-0--------------|
G|---0----------0---0--0--------------0---2-----|
D|-------------------------2--------0-------4p0-|
A|------------3----------0----------------------|
E|-0------------------------------3-----2-------|

Learn Intro & Verses on the guitar



E|-------0--------------------------------------|
B|-----0---0------3----------0-1-0--------------|
G|---0----------0---0--0--------------0---2-----|
D|-------------------------2--------0-------4p0-|
A|------------3----------0----------------------|
E|-0------------------------------3-----2-------|