Hide Commercials
Did you know?
No 'did you know', Add an info for this song
Massive Attack - Teardrop Chords
Ranking: 5.92 Sign Up and Rank!

Massive Attack - Teardrop



Category: Pop | Familiar Songs
F*: 033200
G*: 055400

Intro & Verses:

E|------------0------------------0-|
B|----------------3-------3--------|
G|--------2-----------2-------2----|
D|---------------------------------|
A|----0----------------------------|
E|---------------------------------|

E|------------0---------------------|
B|----------------3-------3---------|
G|--------2-----------2-------2---2-|
D|----------------------------------|
A|----0-----------------------------|
E|----------------------------------|

A        Cadd9               
(love) love is a verb love is a doing word
G                A   
feathers on my breath
A   Cadd9                     
gentle impulsion shakes me makes me lighter
G                A   
feathers on my breath

Chorus:

F*                  
teardrop on the fire
G*               A   
feathers on my breath

A         Cadd9                
in the night of matter black flowers blossom
G   A   
feathers on my breath
F*                   
black flowers blossom
G*               A   
feathers on my breath

Repeat Chorus

A  cadd9                
water is my eye most faithful my love
G   A   
feathers on my breath
A       Cadd9          
teardrop on the fire of a confession
G   A   
feathers on my breath
F*                   
most faithful my love
G*   A   
feathers on my breath

Repeat Chorus

Bridge:
A F* G* F* G* A

F*          G*
stumbling a little 
G*   A
stumbling a little

Repeat Intro
If you like the way the song is edited, help us grow with your like please
More songs of Massive Attack:
Unfinished Sympathy Protection
More songs from the category Pop:
KYGO - Stole The Show
Cranberries - Just My Imagination
R.E.M. - Everybody Hurts
B.o.B and Jessie J - Price Tag
Mariah Carey - All I Want For Christmas Is You