Hide Commercials
Did you know?
No 'did you know', Add an info for this song
The Rembrandts - I’ll Be There For You Chords
Ranking: 5.9 Sign Up and Rank!

The Rembrandts - I’ll Be There For You



A                      
So no one told you life
                  G    A
was gonna be this way   
A                               
Your job's a joke, you're broke,
                     C#m  G
your love life's D.O.A.    
G                Bm              A          
It's like you're always stuck in second gear
        G                D              
When it hasn't been your day, your week,
     E                            A
your month, or even your year but  

Chorus:

A       D          E 
I'll be there for you
E                             
(When the rain starts to pour)
A       D          E 
I'll be there for you
 E                           
(Like I've been there before)
A       D          E 
I'll be there for you
                         G      
('Cause you're there for me too)

A                                            G    
You're still in bed at ten and work began at eight
A                                
You burned your breakfast so far,
                 C#m  
things are going great
G           Bm                    A              
Your mother warned you there'd be days like these
        G               D             
But she didn't tell you when the world
    E                                  
has brought you down to your knees that

Repeat Chorus

D                        
No one could ever know me
D                       
No one could ever see me
F#m                            
Sometime the only one who knows
F#m                   
what its like to be me
Bm                           
Someone to face the day with,
Bm7                              
make it through all the mess with
G            D                 
Someone I'll always laugh with,
E              D         E        F#m 
even under the worst I'm best with you

Solo:

F#m      Bm Esus4 E                A     D    E              
E|-------------------------------------------------------------------|
B|-2-2-2-2-2-2-2-2-2-2--0-0---0--0-----0----0-s2-------2--0--0-------|
G|----------------------------------------2---------------------2--1-|
D|------------------------------------------------2-s4---------------|
A|-------------------------------------------------------------------|
E|-------------------------------------------------------------------|

[ ]       F#m           Bm        Esus4     [E ]  A  
E|------------------------------------------------------------------|
B|--------------------------------------------------------------0---|
G|----------------------------------------------2-2-2--1-1-1--2---2-|
D|-4--2-------------------------------------------------------------|
A|-------4--2--4-4-4-4-4-4-4-4------0-s4--2--2----------------------|
E|-----------------------------2-2----------------------------------|

       D       E              
E|-0--------------------2--5-|
B|-------3--3--0--2--3-------|
G|----2----------------------|
D|---------------------------|
A|---------------------------|
E|---------------------------|

G                Bm              A          
It's like you're always stuck in second gear
        G                [D ] 
When it hasn't been your day, your week,
     E                           
your month, or even your year but

Repeat Chorus

A       D          E 
I'll be there for you
A       D          E 
I'll be there for you
A       D          E                              G    A
I'll be there for you ('Cause you're there for me too)  
If you like the way the song is edited, help us grow with your like please
More songs of The Rembrandts:
More songs from the category Rock:
Janis Joplin - Piece Of My Heart
Rolling Stones - Satisfaction
Coldplay - Speed Of Sound
Train - Hey Soul Sister
Snow Patrol - Chasing Cars