My Songs
Hide Ads »

Red Hot Chili Peppers - I Like Dirt


Undefined
To view Strummings you must be a logged in userSign up \ Login
Add song No Easy Version Playing Menu
Bm: xx7777

Bm                              
Some come up and some come young
Bm                               
Live to love and give good tongue
Bm                          
Sit down get down in the sun
Bm                               
Rocket to the woman is on the one

Chorus:

Bm                                               
I like dirt I like dirt  I like dirt  I like dirt

Bm                                
The earth is made of dirt and wood
Bm                           
And I'd be water   if I could
Bm                                              
Live in a dream  In your stream  Live in a dream

Bm                              
Some come up and some come young
Bm                               
Live to love and give good tongue
Bm                          
Sit down get down in the sun
Bm                               
Rocket to the woman is on the one

Repeat Chorus

Bridge:

e||----------------------------------------||
B||----------------------------------------||
G||-7--4-4---7--4-4--------7--4-4---7--4-4-||
D||-0--------0--2-2--------0--------0--2-2-||
A||----2-2--------------------2-2----------||
E||----------------------------------------||

Bm                         
Some come slow and overload
Bm                             
Must roll over when you're told
Bm                          
Let's unzip and let's unfold
Bm                                     
A letter to the pet better get it to go

Repeat Chorus

Bm                         
Space is made of everything
Bm                          
And I'd be fire that I bring
Bm                                               
Live in a dream  In your spring   Live in a dream

Bridge:

    
Cm                                                       
e||--------------------------|--|--------------------------||
B||-4------------------------|--|-/8-----6-----------------||
G||----3--5------------------|--|-----8------5--8-----5----||
D||----------3--5------3-----|--|------------------8-----5-||
A||-----------------6-----3--|x3|--------------------------||
E||--------------------------|--|--------------------------||

Bm                         
Some come slow and overload
Bm                             
Must roll over when you're told
Bm                          
Let's unzip and let's unfold
Bm                                     
A letter to the pet better get it to go

Repeat Chorus
Bridge:
Bm Bm Bm Bm x2

Repeat Verse 1

Ending:
Bm Bm Bm Bm x2
Red Hot Chili Peppers
EasilyScar TissueCan't StopThis Velvet GloveSaviorDani CaliforniaMy FriendsRight On TimeEmit RemmusPorcelain
Undefined
ABBA - Bang A Boomerang
Slipknot - Duality
AC/DC - It's A Long Way
ABBA - Head Over Heels
Alanis Morissette - Not The Doctor
I Like Dirt Replies
Login To reply - Sign up \ Login