Hide Commercials
Did you know?
No 'did you know', Add an info for this song
Led Zeppelin - Houses Of The Holy Chords
Ranking: 5.92 Sign Up and Rank!

Led Zeppelin - Houses Of The Holy



Category: Undefined
Intro: x4

e|--------3-3----------3-3----2---2-|
B|--------2-2----------2-2----2---2-|
G|--------2-2----------2-2----2---2-|
D|-2-2-2--2-2---2-2-2--2-2----2---2-|
A|-3-4-0--------3-4-0---------------|
E|----------------------------------|

E      D               A E   
Let me take you to the movies
       D              A  E 
Can I take you to the show 
E      D              A E 
Let me be yours ever truly
      D                    
Can I make your garden grow

Repeat Intro x4

Guitar2:

e|----------------------------|
B|----------------------------|
G|-------9p6------------------|
D|-9b11------9-7------9p7---7-|
A|---------------9-7------9---|
E|----------------------------|

E        D             A E  
From the houses of the holy,
       D                     A E
we can watch the white doves go 
E        D                  A    E   
From the door comes Satan's daughter,
       D            A   E          
and it only goes to show. You know.

Repeat Intro x4

Guitar2:

e|----------------------------|
B|----------------------------|
G|-------9p6------------------|
D|-9b11------9-7------9p7---7-|
A|---------------9-7------9---|
E|----------------------------|

E          D           A    E   
There's an angel on my shoulder,
      D               A   E
In my hand a sword of gold 
E      D              A  E  
Let me wander in your garden
        D                                 
And the seeds of love I'll sow. You know. 

Repeat Intro x4

Guitar2:

e|----------------------------|
B|----------------------------|
G|-------9p6------------------|
D|-9b11------9-7------9p7---7-|
A|---------------9-7------9---|
E|----------------------------|

E      D                 A  E  
So the world is spinning faster
        D                  A   E
Are you dizzy when you're stoned
E       D             A  E  
Let the music be your master
         D                                          
Will you heed the master's call Oh... Satan and man.

Repeat Intro x4

Guitar2:
e|--------------------------------------------|
B|--------------------------------------------|
G|-------9p6----------------------------------|
D|-9b11------9-7------9p7---7-----------------|
A|---------------9-7------9---9-7---7-9-------|
E|--------------------------------9-----9-7-5-|

E          D               A E   
Said there ain't no use in crying
              D                    A  E
Cause it will only, only drive you mad 
E       D                 A E   
Does it hurt to hear them lying?
             D                        
Was this the only world you had? Oh-oh

Repeat Intro x4

Guitar2:
e|----------------------------|
B|----------------------------|
G|-------9p6------------------|
D|-9b11------9-7------9p7---7-|
A|---------------9-7------9---|
E|----------------------------|

E         D                         A E   
So let me take you, take you to the movie.
      D                      A E  
Can I take you, baby, to the show.
E             D                     A E  
Why don't you let me be yours ever truly.
      D                               
Can I make your garden grow  You know.
If you like the way the song is edited, help us grow with your like please
More songs of Led Zeppelin:
Communication Breakdown No Quarter Stairway To Heaven
More songs from the category Undefined:
ABBA - Knowing Me, Knowing You
Garbage - Milk
Bon Jovi - Always
Leonard Cohen - A Bunch of Lonesome Heroes
Red Hot Chili Peppers - Savior