My Songs
My Songs
Hide Ads »

Red Hot Chili Peppers - This Velvet Glove


Editor: TAB4U Staff
Undefined
Intro (play also Verses):

  Dm         C       Bb                 Dm        C      Bb           
e|-------------------------------------------------------------------|
B|-------------------------------------------------------------------|
G|-------------------------------------------------------------------|
D|----5--3-----2-3------2--3--2--2---------5--3-----2-3------2--3--2-|
A|-5---------3-------1------------------5---------3-------1----------|
E|-------------------------------------------------------------------|

        Dm      C      Bb              Dm      C      Bb       
e|------------------------------------------------------------|
B|------------------------------------------------------------|
G|------------------------------------------------------------|
D|-----------------------------------------------5-3----------|
A|-1-3-3s5--5-5-3-3-3--1--1--1--1-1--3s5--5-5--3------1-1-1-1-|
E|------------------------------------------------------------|
Red Hot Chili Peppers
Get On TopUnder the bridgeUniversally SpeakingBrendan's Death SongSaviorPurple StainScar TissueCaliforniacationCan't StopPorcelain
Undefined
Leonard Cohen - Teachers
Blink 182 - Adam's Song
Coldplay - Viva La Vida
ABBA - Fernando
Leonard Cohen - Hey, That's No Way to Say Goodbye
This Velvet Glove Replies
Login To reply: Sign up \ Login