Hide Commercials
Did you know?
No 'did you know', Add an info for this song
Stevie Wonder - Isn´t She Lovely Chords
Ranking: 6.02 Sign Up and Rank!

Stevie Wonder - Isn´t She Lovely



Category: Pop | Familiar Songs
Amaj7*: x02110
A6/B:   x22222

Intro:
C#m7 F#7 A6/B E 

          C#m7   F#7           A6/B  E  
Isn't she lovely,    isn't she wonderful
          C#m7     F#7               A6/B   E  
isn't she precious     less than one minute old

        Amaj7                   Amaj7*
I never thought through love we'd be  
           C#m7          F#7
Making one as lovely as she 
               A6/B          Aadd9    E   
But isn't she lovely  made   from     love

          C#m7    F#7            A6/B    E   
Isn't she pretty       Truly the angel's best
            C#m7   F#7
Boy, I'm so happy     
             A6/B    E     
We have been heaven blessed

        Amaj7                Amaj7*
I can't believe what God has done  
                C#m7          F#7
through us he's given life to one
              A6/B         Aadd9   E   
But isn't she lovely made  from    love

Solo:

   E        C#m7  F#7        A6/B         E  
e|------------------------------------------|
B|-8s9-10-9-7--------8s9-10-9-7-------------|
G|-------------9-----------------9----------|
D|-----------------------------------9h11-9-|
A|------------------------------------------|
E|------------------------------------------|

              C#m7       F#7         A6/B 
e|---------------------------------------|
B|----8s9-10-9-7---7h9-----8s9-10-9-7----|
G|---------------------9---------------9-|
D|---------------------------------------|
A|---------------------------------------|
E|---------------------------------------|

               E             Amaj7   
e|-------------------------7-9-7----|
B|--------------------9-10----------|
G|-------------9--------------------|
D|-7-9-7h9p7p6----------------------|
A|----------------------------------|
E|----------------------------------|

           Amaj7*                  C#m7       F#7
e|12-9-----12-10----12-10------9---9--7---------|
B|-----12--------9--------9------9------8s9--7--|
G|---------------------------------------------9|
D|----------------------------------------------|
A|----------------------------------------------|
E|----------------------------------------------|

              A6/B               E    
e|-----------------------------------|
B|-----8s9-10-9-7--------------------|
G|------------------9----------11--9-|
D|---------------------11--9---------|
A|-----------------------------------|
E|-----------------------------------|

          C#m7    F#7              A6/B     E   
Isn't she lovely      Life and love are the same
         C#m7  F#7     A6/B           E   
Life is Aisha      The meaning of her name

Amaj7                          Amaj7*
Londie, it could have not been done  
        C#m7                  F#7
Without you who conceived the one
                A6/B        Aadd9   E   
That's so very lovely made  from    love

Repeat Solo
If you like the way the song is edited, help us grow with your like please
More songs of Stevie Wonder:
Master Blaster Happy Birthday Superstition I just called to say I love you Ain't No Sunshine When She's Gone
More songs from the category Pop:
Counting Crows - A Long December
Jewel - Pieces of You
Madonna - Beautiful Stranger
Alanis Morissette - That I would be good
R.E.M. - Man On The Moon