Rooster chords by Alice In Chains

No Easy Version
Intro x4:

G|-------------------------------------------|
D|-------------------------------------------|
A|--------------------------------0---0--0--0|
E|-0-2--2---5--6s7--5---0--2--2--------------|

Verse:

G|---------------------------------|
D|-------------------------------4-|
A|---------------3s4--3--2--0------|
E|-0-2--2---5-----------------2----|
Alice In Chains
Man in The BoxThem bonesDown In A HoleNutshellWouldRight TurnAlone
Rock
Leonard Cohen - Everybody Knows
Emerson, Lake & Palmer - Lucky Man
Phil Collins - In The Air Tonight
Pharrell Williams - Freedom
Eric Clapton - Cocaine