My Songs
My Songs
Hide Ads »

Kinks - You Really Got Me


Editor: TAB4U Staff
Pop Familiar Songs
To view Strummings you must be a logged in userSign up \ Login
Auto Scroll Add to my songs
Intro & riff 1:

   F5 G5 F5 G5 
e|------------|
B|------------|
G|------------|
D|-3--5-5-3-5-|
A|-3--5-5-3-5-|
E|-1--3-3-1-3-|

G    F G             G      F   G
girl      you really got me going
              F       G            G     F G
you got me so I dont know what im doing      
see dont ever set me free
i always wanna be your side
G    F G            G        F   G
yeah     you really got knowing   
           G          F     G       G  F G
you got me so i cant sleep at night       
yeah you really got knowing
you got me so i cant sleep at night

riff 2:

  G5 A5 G5 A5  
e|------------|
B|------------|
G|------------|
D|-5--7-7-5-7-|
A|-5--7-7-5-7-|
E|-3--5-5-3-5-|

yeah   you really got me now
you got me so I dont know what im doing now

riff 3:

   C5  D5    C5 D5  
e|-----------------|
B|-----------------|
G|-----------------|
D|-10--12-12-10-12-|
A|-10--12-12-10-12-|
E|-8---10-10-8--10-|

oh yeah you really got me now
you got me so I cant sleep at night
you really got me   you really got me
                      C5
you really got me      

Solo:

e|--------------------------------------------------|
B|-------------------3------------------------------|
G|-5b-5b-5b-5b-5b-5b---5b6-6r5p3p0--3-0-3-0-3-0-3-0-|
D|--------------------------------------------------|
A|--------------------------------------------------|
E|--------------------------------------------------|

e|------------------------------------------|
B|------------------------------------------|
G|-3-0-3-5b6-6r5p3p0--3-0-3-0-3-5b6-6r5p3p0-|
D|------------------------------------------|
A|------------------------------------------|
E|------------------------------------------|

e|-6p3------------------------------------------6p3---|
B|-----3--------------------------------------------3-|
G|-------5b6-6r5p3p0--3-0-3-0-3-5b6-5b6-6r5p3p0-------|
D|----------------------------------------------------|
A|----------------------------------------------------|
E|----------------------------------------------------|

e|------------------------------------------------------|
B|------------------------------------------------------|
G|5b6-6r5p3p0--3-0-3-0-3--5b6-5b6-5b6-5b6-5b6--5b6--5b6-|
D|------------------------------------------------------|
A|------------------------------------------------------|
E|------------------------------------------------------|
Bridge:
F G F5 G x4

Ending:
D D7
More songs of Kinks:
More songs from the category Pop:
Alphaville - Forever Young
Sia - Freeze You Out
Leonard Cohen - First We Take Manhattan
Jewel - Foolish Games
Nikka costa - On My Own