Hide Commercials
Did you know?
No 'did you know', Add an info for this song
Oasis - Go Let It Out Chords
Ranking: 5.98 Sign Up and Rank!

Oasis - Go Let It Out



Category: Rock
Dsus5: xx0234

Intro:
A7

A7                                              
Make no illusion, try to click with what you got
A7                                              
Taste every potion as if you like yourself a lot
          Dadd9          Fmaj7  G           A7 
Go let it out, go let it in,      go let it out

A7                                         
Life is precocious in the most peculiar way
A7                                     
Sister psychosis don't got a lot to say
              Dadd9              Fmaj7  G
She go let it out, she go let it in,     
              A7 
she go let it out
              Dadd9              Fmaj7  G
She go let it out, she go let it in,     
              A7 
she go let it out

Chorus:

D          F          A           Cadd9  D
Is it any wonder why princes and kings    
D               F              A       Cadd9  D
Are clowns that caper in their sawdust rings   
D        F               A            Cadd9
Ordinary people that are like you and me   

          G                   D 
We're the keepers of the destiny
          G                   D 
We're the keepers of the destiny

A7                         
I'm gonna live in the city,
A7                            
I'm gonna drive in out of town
A7                        
And you're coming with me,
A7                          
The right time is always now
             Dadd9              Fmaj7  G
So go let it out, and go let it in,     
              A7 
And go let it out
             Dadd9             Fmaj7  G
So go let it out, so go let it in,     
          A7 
go let it out

Repeat Chorus

          G                    D    
We're the builders of the destiny x4

Bridge:
D Dsus4 Dsus5 Dsus4 x3
D Dsus4 Dsus5 Dsus5

E|------|
B|------|
G|-7-7--|
D|------|
A|------|
E|------|

             D              Cadd9  G2
So go let it out, go let it in,      
          D                 Cadd9  G2
Go let it out, don't let it in,      
              D                 Cadd9  G2
And go let it out, don't let it in,      
              D                 
And go let it out, don't let in,
Cadd9               G2    
don't let in, don't let in

Solo:

    D                       Cadd9            G2      
E|-----------------------------------------------|--|
B|--7-7--8-8--10-10----8-7--8-7------------------|--|
G|-------------------------------9--7--9b10--9-7-|--|
D|-----------------------------------------------|--|
A|-----------------------------------------------|x3|
E|-----------------------------------------------|--|

    D                 Cadd9            G2            
E|--------------------8h10---10--10-10--10--10------|
B|--7-7--8-8--10-10---------------------------------|
G|--------------------------------------------------|
D|--------------------------------------------------|
A|--------------------------------------------------|
E|--------------------------------------------------|

E|---------------------------------------------|
B|---------------------------------------------|
G|-----10-----10-----------10----10h12---------|
D|--12-----12-----12----12-----12------12------|
A|---------------------------------------------|
E|---------------------------------------------|

E|--------------------------------------------------|
B|------------------13-13b15r13-10------------------|
G|-----10-----10---------------------12b13r12-10----|
D|--12-----12------------------------------------12-|
A|--------------------------------------------------|
E|--------------------------------------------------|
If you like the way the song is edited, help us grow with your like please


More songs of Oasis:
Wonderwall Don't Look Back in Anger Don't Go Away The Masterplan Live Forever Columbia Some Might Say
More songs from the category Rock:
U2 - Every Breaking Wave
Queen - We Are The Champions
Jack Johnson - If I Had Eyes
Gotye - Somebody That I Used To Know
R.E.M. - Imitation Of Life