Everybody Hurts chords by R.E.M.

Easy Version
Intro: x2

    D                      G                       
e|-------2-----------2-----------3-----------3----|
B|-----3---3-------3---3-------3---3-------3---3--|
G|---2-------2---2-------2---0-------0---0-------0|
D|-0-----------0----------------------------------|
A|------------------------------------------------|
E|-------------------------3-----------3----------|

Verse:

    D                       G                          
e|-------2-----------2-----------3-----------3-----|--|
B|-----3---3-------3---3-------3---3-------3---3---|--|
G|---2-------2---2-------2---0-------0---0-------0-|--|
D|-0-----------0-----------------------------------|--|
A|-------------------------------------------------|x4|
E|-------------------------3-----------3-----------|--|

   G                G/F#   
e|------3-----------------|
B|----3---3-------3-----3-|
G|--0-------0---0-----0---|
D|------------------------|
A|------------------------|
E|3-----------3-----2-----|

   Em                       A                        
e|--------0-----------0-----------0-----------------|
B|----------0-----------0-----------0---------------|
G|.-----------0-----------0-----2-----0-----2------.|
D|.-----2-----------2---------2-----------2--------.|
A|----2-----------2---------0-----------0-----0-----|
E|-0-----------0--------------------------------3-2-|

   Em                          A             
e|--------0-----------0-----|-------0-----0-|
B|----------0-----------0---|---------0-----|
G|------------0-----------0-|-----2-----0---|
D|-----2-----------2--------|---2-----------|
A|---2-----------2----------|-0-------------|
E|-0-----------0------------|---------------|

D                     G          D   
When your day is long   and the night
                     G   D
The night is yours alone  
                             G              D  
When you're sure you've had enough of this life
          G  G/F# Em
Well hang on        

Em                 A  Em
Don't let yourself go   
                A     Em
Cause everybody cries   
              A    
And everybody hurts
 D        G
Sometimes  

                        D     G
Sometimes everything is wrong  
                        D  
Now it's time to sing along
                         G      D
When your day is night alone     
 D                
(hold on, hold on)
                         G     D          
If you feel like letting go      (hold on)
                            G             D  
If you think you've had too much of this life
          G  G/F# Em
Well hang on        

Em              A     Em
Cause everybody hurts   
                       A     Em
Take comfort in your friends   
          A      F#
Everybody hurts    

F#                Bm  F#
Don't throw your hand   
      Bm F#                   Bm  C
Whoa now    don't throw your hand  
                          G  
If you feel like you're alone
C               C/B   Am   D
no no no you're not alone   

D                 G            D  
If you're on your own in this life
                         G   D
The days and nights are long  
                             G    
When you think you've had too much
         D             G  G/F# Em
of this life   to hang on        

Em             A      Em      
Well everybody hurts sometimes
          A     Em
Everybody cries   
              A    
And everybody hurts
 D        G
Sometimes  
Bridge:
G Em D D x4

              D      G       
But everybody hurts sometimes
    D       G       D       G     
So hold on hold on hold on hold on
 D       G       D       G     
Hold on hold on hold on hold on
          D     G   D   G
Everybody hurts          
              D   G  D  G  D  G
You are not alone              
Bridge:
G Em D D x4

Ending:
D D G Em x4
R.E.M.
The One I LoveImitation Of LifeLosing My ReligionStandDaysleeperIt's The End Of The WorldMan On The MoonPop Song 89Supernatural SuperseriousDrive
Pop
Madonna - Beautiful Stranger
Sugababes - Too Lost In You
The Beatles - Eleanor Rigby
Daniel Powter - Bad Day
Sting - Englishman in New York
Everybody Hurts Replies
Login To reply - Sign up \ Login