My Songs
Hide Ads »

Jewel - Foolish Games


Pop Exciting Song
To view Strummings you must be a logged in userSign up \ Login
Add song Easy Version Playing Menu
Intro:

   
Dm                                
Bb             
E|---------0---1---3---1---0---1---|---------0---1-|
B|-----3---------------------------|-----3---------|
G|---2---2---2---2---2---2---2---2-|---3---3---3---|
D|-0-------------------------------|---------------|
A|---------------------------------|-1-------------|
E|---------------------------------|---------------|

  
Bb                  
F                               
E|--3---1---0---1---|---------1---3---5---3---1------|
B|------------------|-----1-----------------------1--|
G|3---3---3---3---3-|---2---2---2---2---2---2---2---2|
D|------------------|--------------------------------|
A|------------------|--------------------------------|
E|------------------|-1------------------------------|

   
C                                 
Dm              
E|---------0---1---3---1---0-------|---------1------|
B|-----1-----------------------1---|-----3-----3---3|
G|---0---0---0---0---0---0---0---0-|---2---2-----2--|
D|---------------------------------|-0--------------|
A|-3-------------------------------|----------------|
E|---------------------------------|----------------|

   
Dm                
Bb                              
E|---------1-------|---------0---------------0------|
B|-----3-----3---3-|-----3-----3---3-----3-----3---3|
G|---2---2-----2---|---3---3-----3-----3---3-----3--|
D|-0---------------|--------------------------------|
A|-----------------|-1---------------1--------------|
E|-----------------|--------------------------------|

   
F                                 
C               
E|---------1---------------1-------|---------0------|
B|-----1-----1---1-----1-----1---1-|-----1-----1---1|
G|---2---2-----2-----2---2-----2---|---0---0-----0--|
D|---------------------------------|----------------|
A|---------------------------------|-3--------------|
E|-1---------------1---------------|----------------|

   
C                 
Bb              
E|---------0-------|---------0------|
B|-----1-----1---1-|-----3-----3---3|
G|---0---0-----0---|---3---3-----3--|
D|-----------------|----------------|
A|-3---------------|-1--------------|
E|-----------------|----------------|

                     
C                              
E|--------0-------|---------0---------------0------|
B|----3-----3---3-|-----1-----1---1-----1-----1---1|
G|--3---3-----3---|---0---0-----0-----0---0-----0--|
D|----------------|--------------------------------|
A|1---------------|-3---------------3--------------|
E|----------------|--------------------------------|

   
F                               F/Dm                             
E|--------1---------------1-------|---------1---------------1------|
B|----1-------1-------1-----1---1-|-----1-------1-------1-----1---1|
G|--2---2---2---2---2---2-----2---|---2---2---2---2---2---2-----2--|
D|3---------------2---------------|-0---------------0--------------|
A|--------------------------------|--------------------------------|
E|--------------------------------|--------------------------------|

Dm           
Bb                        
F    
You took your coat off and stood in the rain
C                              
You were always crazy like that
Dm        
Bb             
I watched from my window,
F                                  
C       
always felt I was outside looking in on you
Dm                        
Bb      
You were always the mysterious one
                    
F            
with dark eyes and careless hair,
F                             
You were fashionably sensitive
      
C             
but too cool to care

Dm                   
Bb     
Then you stood in my doorway
               
F   
with nothing to say
                   
C               
besides some comment on the weather
Gm                                
Well in case you failed to notice,
Bb                        
in case you failed to see,
F                                    
This is my heart bleeding before you,
C                          
This is me down on my knees

Chorus:

Dm              
C           
F     
F/E  
Dm
These foolish games are tearing me apart 
  
Bb           
C                  
F     
F/E 
Bb
Your thoughtless words are breaking my heart  
            
Dm          
You're breaking my heart

Dm                    
Bb                
You were always brilliant in the morning
              
F                  
C          
Smoking your cigarettes, talking over coffee
Dm                          
Bb              
Your philosophies on art, Baroque moved you,
                                
F
You loved Mozart and you'd speak
F                 
Of your loved ones
            
C                   
As I clumsily strummed my guitar
Dm                             
You'd teach me of honest things
Bb                                             
Things that were daring, things that were clean
F                             
C                
Things that knew what an honest dollar did mean
Dm                         
Bb          
So I hid my soiled hands behind my back
    
F                   
Somewhere along the line
     
C                           
I must've gone off track with you
Gm                          
Bb    
Excuse me, think I've mistaken you
Bb               
For somebody else
     
F                   
Somebody who gave a damn,
C                        
Somebody more like myself

Repeat Chorus 

Dm              
Bb                      
F   
You took your coat off and stood in the rain
C                              
You were always crazy like that
Bridge:
C Dm Dm Bb x4

Repeat Intro

Ending:
Dm Bb C Dm x4
Jewel
Who Will Save Your SoulHandsLittle SisterPieces of You
Pop
Roxy Music - Avalon
Adele - Lovesong
Adele - Turning tables
Neil Diamond - Sweet Caroline
Snap! - Rhythm Is A Dancer
Foolish Games Replies
Login To reply - Sign up \ Login