Hide Commercials
Did you know?
No 'did you know', Add an info for this song
אהוד בנאי - על דרך יפו Chords
Ranking: 6.02 Sign Up and Rank!

אהוד בנאי - על דרך יפו

Author And Composer: אהוד בנאי
Category: קאנטרי
פתיחה:

   A       D/A         A         E   A 
e|------------------------------------|
B|------------------------------------|
G|------------------------------------|
D|------------------------------------|
A|-------4-5-4---5-4-----------4------|
E|---5-7-------7-----7-5---5-7---0----|

         D/A          A     E      A  
e|-----------------------------------|
B|-----------------------------------|
G|-----------------------------------|
D|-----------------------------------|
A|-----4-5-4---5-4--------4----------|
E|-5-7-------7-----7--5-7---0--7-4-5-|

   A        D/A           A         E  
e|------------------------------------|
B|------------------------------------|
G|------------------------------------|
D|------4-6-7---6-4-------------------|
A|-7--7--------------7--5-4---4-5-7---|
E|----------------------------------7-|

 A       D/A          A     E      A  
e|-----------------------------------|
B|-----------------------------------|
G|-----------------------------------|
D|-----------------------------------|
A|-----4-5-4---5-4--------4----------|
E|-5-7-------7-----7--5-7---0--7-4-5-|

   D                A
על דרך יפו לפנות בוקר
  E            A 
דהרנו ארבעה פרשים
         D              A 
הבוס הצ'יף הטרמפדור והדוכס
 A    E       A  
למסע מחקר    חשאי
 D                 A  
קיבלנו מפה עתיקה ומצפן
 E             A    
מסנדלר ארמני גר וזקן
A            D               A 
יצאנו לרחובות להרכיב תרכובות      
  A     E   
להחיות נפשות

מעבר:
A D/A A E A

D                A 
מעיר לעיר חולפים   
  E            A              
כמו שמועה עם נהג מתולתל וכנפים
 D                A   
בדרכנו לשחרר את השושנה
  A   E       A  
להשיב את הדג למים
  D             A     
לא ביקשנו כבוד לא ממון
  E                A 
וגם לא את שמנו בעיתון
         D            A 
לצער העולם  ביקשנו תרופה
 A      E   A  
לעצור את המגיפה

מעבר:
A D/A A E A D/A A E A

A         D           A 
הבוס חזר מצלילה עמוקה   
  E                 
הצ'יף הדליק לו מקטרת
      D          A   
הדוכס   היה חולה אהבה
A     E       A       
הטרומפדור בא מארץ אחרת
 D                A
כל אחד דיבר שפה זרה
  E          A      
אך הייתה מטרה משותפת
 D            A   
להחזיר   את הכוונה
   A        E    A  
למקום אליו היא שייכת

מעבר:
A D/A A E A D/A A E A

   D                A
על דרך יפו לפנות בוקר
  E            A 
דהרנו ארבעה פרשים
         D              A 
הבוס הצ'יף הטרמפדור והדוכס
 A    E       A  
למסע מחקר    חשאי
  D             A     
לא ביקשנו כבוד לא ממון
  E                A 
וגם לא את שמנו בעיתון
         D            A 
לצער העולם  ביקשנו תרופה
 A      E   A  
לעצור את המגיפה

סיום:
A D/A A E A D/A A E A x2
If you like the way the song is edited, help us grow with your like please
More songs of אהוד בנאי:
דם
More songs from the category קאנטרי:
הדודאים - שיירת הרוכבים
Bob Dylan - Maggie's Farm
שלומי שבן - אני שוקעת... תפוס אותי!
אהוד בנאי - על דרך יפו
הבילויים - חיליק פורצלינה מסתכל על המצעד