Hide Commercials
Did you know?
No 'did you know', Add an info for this song
Madonna - Don't Tell Me Chords
Ranking: 5.92 Sign Up and Rank!

Madonna - Don't Tell Me



Intro:

   D                A           
e|-------0h2------|------------|
B|-----3-----3----|-------0----|
G|-----2----------|-----0------|
D|-0-----------0--|-----2------|
A|----------------|-0----------|
E|----------------|------------|

   C             G           D                
e|-------------|-----------|-------0h2-------|
B|-------------|-----------|-----3-----3-----|
G|-------0-----|-----------|-----2-----------|
D|---0h2-------|-------0---|-0-----------0---|
A|-3------3----|---0h2-----|-----------------|
E|-------------|-3-------3-|-----------------|

   A           C                 G            
e|-----------|-----------------|-------------|
B|-------0---|-----------------|-------------|
G|-----0-----|-----------0-----|-------------|
D|-----2-----|-2---2--/2---0h2-|-------------|
A|-0---------|-3---3-----------|-------0-0-0-|
E|-----------|-----------------|-3---3-------|

D     A           C   G  D
Don't tell me to stop     
D        A            C   G  D
Tell the rain not to drop     
D        A            C    G
Tell the wind not to blow   
            D    A  C  G
Cause you said so  Mm Mm

D         A           C  G
Tell the sun not to shine 
      D      A       C    G   
Not to get up this time, no no
D       A           C  G         
Let it fall by the way, but don't
D          A      C   G  
Leave me where I lay down

Bridge:
D A C G x2

D    A    C         G  
Tell me love isn't true
           D         A       C  G
It's just something that we do   
D    A  C               G 
Tell me everything I'm not
      D           A           C  G
But please don't tell me to stop  

 D        A              C  G
Tell the leaves not to turn  
           D     A           C    G     
But don't ever tell me I'll learn, no no
 D         A           C   G
Take the black off a crow   
           D          A      C  G
But don't tell me I have to go   

 D        A          C  G
Tell the bed not to lay  
          D     A          C      G 
Like the open mouth of a grave, yeah
D        A         C  G
Not to stare up at me  
         D        A       C  G
Like a calf down on its knees 

D    A    C         G  
Tell me love isn't true
           D         A       C  G
It's just something that we do   
D    A  C               G 
Tell me everything I'm not
     D          A           C  G
But don't ever tell me to stop  

                D    A  C           G 
Don't you ever tell me love isn't true
           D         A       C  G
It's just something that we do   
D    A  C               G 
Tell me everything I'm not
     D          A           C  G
But don't ever tell me to stop  

Bridge:
D A C G x2

Don't you ever
Please don't
Please don't
Please don't tell me to stop
Don't you ever Tell me
Ever
Don't ever tell me to stop

 D        A          C  G
Tell the bed not to lay  
          D     A          C      G 
Like the open mouth of a grave, yeah
D        A         C  G
Not to stare up at me  
         D        A       C  G
Like a calf down on its knees 

Bridge:
D A C G x10
If you like the way the song is edited, help us grow with your like please
More songs of Madonna:
Beautiful Stranger Substitute For Love Hollywood Frozen You'll See Like a Prayer American Pie
More songs from the category Pop:
Stevie Wonder - I just called to say I love you
Adele - When We Were Young
Backstreet Boys - Quit Playing Games
Alanis Morissette - You Learn
Gloria Gaynor - I will survive