My Songs
Hide Ads »
Red Hot Chili Peppers - Can't Stop - Learn the Intro & Verses in the guitar
Scroll There
Scroll There

The Intro & Verses in the guitar



e||---------------------|--||
B||---------------------|--||
G||---------------------|--||
D||-0-2-0-2-0-2-0-2-0-2-|--||
A||---------------------|x8||
E||---------------------|--||

e|-------------------------------------------------|
B|------3--5---------3--5-----------3-5--------3-5-|
G|-------------------------------------------------|
D|-2-2--------2-2-2--------2-2-2-0------0-0-0------|
A|-------------------------------------------------|
E|-------------------------------------------------|

e|------------------------------------------------------||
B|--------3--5--------3-5-----------3-5--------3-5------||
G|------------------------------------------------------||
D|-0-0--------------------------------------------------||
A|-----2--------2-2-2------2-2-2-3-------3-3-3------3-3-||
E|------------------------------------------------------||

Learn Intro & Verse in the guitar



e||---------------------|--||
B||---------------------|--||
G||---------------------|--||
D||-0-2-0-2-0-2-0-2-0-2-|--||
A||---------------------|x8||
E||---------------------|--||

e|-------------------------------------------------|
B|------3--5---------3--5-----------3-5--------3-5-|
G|-------------------------------------------------|
D|-2-2--------2-2-2--------2-2-2-0------0-0-0------|
A|-------------------------------------------------|
E|-------------------------------------------------|

e|------------------------------------------------------||
B|--------3--5--------3-5-----------3-5--------3-5------||
G|------------------------------------------------------||
D|-0-0--------------------------------------------------||
A|-----2--------2-2-2------2-2-2-3-------3-3-3------3-3-||
E|------------------------------------------------------||