My Songs
PubilcPrivate
My Songs
Full Access
Hide Ads
Red Hot Chili Peppers - Californiacation - Learn the Intro, Verse & Solo on the guitar
Scroll There
Scroll There
Scroll There
Scroll There
Scroll There

The Intro & Verse



   Am                   F               
e|-------------------------------------|
B|-----0-1-----------------------------|
G|---------------------------0-2-------|
D|---2---2---2-0h2p0-----------0--0----|
A|-0-----------------3----3---------3--|
E|----------------------1--------------|

    Am                   F              
e|-------------------------------------|
B|------0-1----------------------------|
G|----------------------------0-2------|
D|----2---2---2-0h2p0-----------3--3-0-|
A|--0-----------------3----3-----------|
E|-----------------------1-------------|

Learn Intro & Verse



   Am                   F               
e|-------------------------------------|
B|-----0-1-----------------------------|
G|---------------------------0-2-------|
D|---2---2---2-0h2p0-----------0--0----|
A|-0-----------------3----3---------3--|
E|----------------------1--------------|

    Am                   F              
e|-------------------------------------|
B|------0-1----------------------------|
G|----------------------------0-2------|
D|----2---2---2-0h2p0-----------3--3-0-|
A|--0-----------------3----3-----------|
E|-----------------------1-------------|

The Solo



  F#m           D       F#m          D     
e|----9--------------------9--------------|
B|-10-------------------10----------------|
G|-------11b12b11~------------11b12b11~---|
D|----------------------------------------|
A|----------------------------------------|
E|----------------------------------------|

             Bm         D       A         E         
e|-------------------------------------------------|
B|-------------------------------------------------|
G|---11-11-11-11p9---------------9--11b12b11--9----|
D|-----------------11-11----9-11----------------11-|
A|-------------------------------------------------|
E|-------------------------------------------------|

      F#m       D    F#m            D      
e|----------12-14----------12---14b16-14--|
B|-------14-------------14----------------|
G|----14-------------14-------------------|
D|----------------------------------------|
A|----------------------------------------|
E|----------------------------------------|

    Bm     D      A     E     
e|--17-16-14-----14----------|
B|-----------17-----17-14-17-|
G|---------------------------|
D|---------------------------|
A|---------------------------|
E|---------------------------|

   Bm        D      A        E         Bm      
e|---------------------------------16--14-----|
B|-14--12s14--12s14--12s14--17--14---------17-|
G|--------------------------------------------|
D|--------------------------------------------|
A|--------------------------------------------|
E|--------------------------------------------|

        D       A      E          Am  
e|-----------------------------------|
B|-14--17--14---------17--15--14-----|
G|-------------16-14--------------14-|
D|-----------------------------------|
A|-----------------------------------|
E|-----------------------------------|

Learn Solo - Part 1



  F#m           D       F#m          D     
e|----9--------------------9--------------|
B|-10-------------------10----------------|
G|-------11b12b11~------------11b12b11~---|
D|----------------------------------------|
A|----------------------------------------|
E|----------------------------------------|

             Bm         D       A         E         
e|-------------------------------------------------|
B|-------------------------------------------------|
G|---11-11-11-11p9---------------9--11b12b11--9----|
D|-----------------11-11----9-11----------------11-|
A|-------------------------------------------------|
E|-------------------------------------------------|

Learn Solo - Part 2



      F#m       D    F#m            D      
e|----------12-14----------12---14b16-14--|
B|-------14-------------14----------------|
G|----14-------------14-------------------|
D|----------------------------------------|
A|----------------------------------------|
E|----------------------------------------|

    Bm     D      A     E     
e|--17-16-14-----14----------|
B|-----------17-----17-14-17-|
G|---------------------------|
D|---------------------------|
A|---------------------------|
E|---------------------------|

   Bm        D      A        E         Bm      
e|---------------------------------16--14-----|
B|-14--12s14--12s14--12s14--17--14---------17-|
G|--------------------------------------------|
D|--------------------------------------------|
A|--------------------------------------------|
E|--------------------------------------------|

        D       A      E          Am  
e|-----------------------------------|
B|-14--17--14---------17--15--14-----|
G|-------------16-14--------------14-|
D|-----------------------------------|
A|-----------------------------------|
E|-----------------------------------|