Hide Commercials
Did you know?
No 'did you know', Add an info for this song
Red Hot Chili Peppers - Californiacation Chords
Ranking: 6.02 Sign Up and Rank!

Red Hot Chili Peppers - Californiacation



Videos:







Intro & verse: x2

   Am                   F               
e|-------------------------------------|
B|-----0-1-----------------------------|
G|---------------------------0-2-------|
D|---2---2---2-0h2p0-----------0--0----|
A|-0-----------------3----3---------3--|
E|----------------------1--------------|

   Am                   F              
e|------------------------------------|
B|-----0-1----------------------------|
G|---------------------------0-2------|
D|---2---2---2-0h2p0-----------3--3-0-|
A|-0-----------------3----3-----------|
E|----------------------1-------------|

Am                      
Psychic spies from China
        F                       
Try to steal your mind’s elation
  Am                      
a Little girls from Sweden
         F                       
Dream of silver screen quotations
    C                 G             
And if you want these kind of dreams
     F        Dm     Am
It’s Californication   

Repeat intro

Am                        
It’s the edge of the world
           F                   
And all of western civilization
    Am                      
The sun may rise in the East
            F                            
At least it settles in the final location
     C               G        
It’s understood that Hollywood
      F        Dm     Am F Am F
sells Californication          

Chorus:

Am                        
Pay your surgeon very well
    F                      
To break the spell of aging
Am                              
Celebrity skin is this your chin
   F                       Am
Or is that war your waging   
Am            F   Am               F   
First born unicorn  Hard core soft porn
 C           G    Dm    Am  C           G    Dm    
Dream of Californication   Dream of Californication

Bridge (with intro...):

  Am        F         Am          F  
e|----------------------------------|
B|----------------------------------|
G|----------------------------------|
D|-7-------------------7----10------|
A|------7---8---------------------8-|
E|----------------------------------|

Am                                    
Marry me girl be my fairy to the world
      F                     
Be my very own constellation
  Am                              
A teenage bride with a baby inside
        F                  
Getting high on information
    C                    G        
And buy me a star on the boulevard
     F        Dm     Am F Am F
It’s Californication          

Am                             
Space may be the final frontier
         F                           
But it’s made in a Hollywood basement
Am                             
Cobain can you hear the spheres
        F                           
Singing songs off station to station
    C             G       
And Alderon’s not far away
     F        Dm     Am F Am F
It’s Californication          

Am                                      F                
Born and raised by those who praise Control of population
Am                             F                     
everybody’s been there  and  I don’t mean on vacation
Am            F   Am               F   
First born unicorn  Hard core soft porn
 C           G    Dm    Am  C           G    Dm    
Dream of Californication   Dream of Californication

Solo:

  F#m           D       F#m          D       
e|----9--------------------9----------------|
B|-10-------------------10------------------|
G|-------11b12b11~------------11b12b11~-----|
D|------------------------------------------|
A|------------------------------------------|
E|------------------------------------------|

            Bm         D        A          E        
e|-------------------------------------------------|
B|-------------------------------------------------|
G|-11-11-11-11p9-----------------------------------|
D|---------------11-11---------9---11b12b11--9-----|
A|------------------------9-11-----------------11--|
E|-------------------------------------------------|

      F#m       D    F#m            D    
e|---------12-14----------12---14b16-14-|
B|------14-------------14---------------|
G|---14-------------14------------------|
D|--------------------------------------|
A|--------------------------------------|
E|--------------------------------------|

   Bm     D      A     E       Bm         
e|-17-16-14-----14-----------------------|
B|----------17-----17-14-17----14--12s14-|
G|---------------------------------------|
D|---------------------------------------|
A|---------------------------------------|
E|---------------------------------------|

  D      A        E         Bm          
e|----------------------16--14---------|
B|-12s14--12s14--17--14---------17--14-|
G|-------------------------------------|
D|-------------------------------------|
A|-------------------------------------|
E|-------------------------------------|

    D       A      E          Am  
e|-------------------------------|
B|-17--14---------17--15--14-----|
G|---------16-14--------------14-|
D|-------------------------------|
A|-------------------------------|
E|-------------------------------|

Am                                    
Destruction leads to a very rough road
       F                   
But it also breeds creation
    Am                                
And earthquakes are to a girl’s guitar
        F                          
They’re just another good vibration
    C                    G             
And tidal waves couldn’t save the world
     F        Dm     Am F Am F
From Californication          

Am                        
Pay your surgeon very well
    F                      
To break the spell of aging
Am                                    
Sicker than the rest  There is no test
    F                         Am
But this is what you’re craving 
Am            F   Am               F   
First born unicorn  Hard core soft porn
 C           G    Dm    Am  C           G    Dm       
Dream of Californication   Dream of Californication x2
If you like the way the song is edited, help us grow with your like please
More songs of Red Hot Chili Peppers:
Otherside Purple Stain Dani California Breaking The Girl Universally Speaking Porcelain Parallel Universe Right On Time Under the bridge Scar Tissue
More songs from the category Rock:
The Angelcy - Freedom Fighters
Guns N' Roses - Don't Cry
Red Hot Chili Peppers - Purple Stain
Bob Dylan and Van Morrison - Crazy Love
Gotye - Somebody That I Used To Know