Hide Commercials
Did you know?
No 'did you know', Add an info for this song
Pink floyd - Breathe Chords
Ranking: 5.8 Sign Up and Rank!

Pink floyd - Breathe



Category: Rock | Familiar Songs
Intro & Verses:

Emadd9         A              Emadd9
e|-----0v---0----------------------|
B|-----0v-----0---------2---3-2----|
G|-----0v---------2---2---2--------|
D|-----4v---------2----------------|
A|-----2v---------0----------------|
E|-0-------------------------------|

Emadd9          A     Bm7   A7        
e|----0v-----------------------------|
B|----0v---0-------------3-----2-----|
G|----0v-----0--2-----------0------0-|
D|----4v--------2-----/4------4------|
A|----2v--------0--------------------|
E|-0---------------------------------|

   A                                             
e|-12-----------|-----------|---------|---/22\--|
B|-12----12/14--|19---------|12-------|---/22\--|
G|-------12/14--|-----19/21-|---12/14-|---/22\--|
D|--------------|-----19/21-|---12/14-|---------|
A|--------------|-----------|---------|---------|
E|--------------|-----------|---------|---------|

Em                      A  
Breathe, breathe in the air
Em                 A   
Don't be afraid to care
Em                    A 
Leave but don't leave me
Em                             A     
Look around and chose your own ground

Chorus:

Cmaj7       Bm      F             G     Dm  Eb  Emadd9    
e|-0-----------2---------------------------------|----0v-|
B|-0----0--0---3-------1-------------3-----------|----0v-|
G|-0----0--0---4-------2------2------4-----------|----0v-|
D|-2----2--2---4-------3----3--------5-----------|----4v-|
A|-3-----------2-------3-------------5------5---6|----2v-|
E|---------------------1-------------3-----------|0------|

e|----------------------------------------------|
B|-12------12----12/13\12--10----8------6---4/5-|
G|----------------------------------------------|
D|----------------------------------------------|
A|----------------------------------------------|
E|----------------------------------------------|
Breathe...                                       

    Cmaj7                         
For long you live and high you fly
    Bm                                     
And smiles you'll give and tears you'll cry
    F                            
And all you touch and all you see
   G                  G7   B 
Is all your life will ever be

Run, run rabbit run
Dig that hole, forget the sun,
And when at last the work is done
Don't sit down it's time to start another one
For long you live and high you fly
But only if you ride the tide
And balanced on the biggest wave
You race toward an early grave.

Home, home again
I like to be there when UI can
When I come in cold and tired
It's good to warm my bones beside the fire
Far away across the field
The tolling of the iron bell
Calls the faithful to their knees
To hear the softly spoken magic spells.
If you like the way the song is edited, help us grow with your like please
More songs of Pink floyd:
Wish You Were Here Is There Anybody Out There Green Is The Colour learning to fly Brain Damage Mother Comfortably numb If
More songs from the category Rock:
Pearl Jam - Once
Gotye - Somebody That I Used To Know
Amy Winehouse - Valerie
Smash Mouth - All Star
Green day - Time of your life