Hide Commercials
Did you know?
No 'did you know', Add an info for this song
U2 - Beautiful day Chords
Ranking: 5.98 Sign Up and Rank!

U2 - Beautiful day



Category: Rock | Familiar Songs
Intro:
A Bm D G D A x2

Riff1 Intro/verse:

   A      Bm     D        G        D       A   
e|-0------2------2--------3------------2---0--|
B|-2------3------3--------3--------3---3---2--|
G|-2------4------2--------0--------2-------2--|
D|-2------4------0--------0--------0-------2--|
A|-0------2---------------2----------------0--|
E|------------------------3-------------------|

                A   Bm   D   G
The heart is a bloom          
        D                      A    
Shoots  up  through the stony ground
           A     Bm   D   G
There's no room            
     D                     A   
No  space  to rent in this town

Riff2 Verse lead guitar:

e|--------------------|
B|-2---3---(3)--------|
G|-----------------4--|
D|--------------------|
A|--------------------|
E|--------------------|

              A     Bm   D    G
You're out of luck             
        D                      A   
And the reason that you had to care
               A     Bm   D    G
The traffic is stuck            
               D          A    
And you're not mo_ving anywhere
                  A         Bm      D  G
You thought you'd found   a friend      
            D              A    
To take you out  of  this  place
        A     Bm      D      G   
Someone you   could  lend  a hand
   D          A    
In return for grace

                 A5   B5  D5  G5   D5
It's a beautiful day                 
               A5       
Sky falls, you feel like
                  A5    B5   D5
It's a beautiful day           
G5    D5          A5 
Don't let it get away

              A    Bm   D   G
You're on the road           
           D           A     
But you've got no destination
              A    Bm   D    G
You're in the mud             
       D               A      
In the maze of her imagination
              A    Bm   D    G
You love this town_           
D             A                
Even if that  doesn't ring true
            A    Bm  D    G
You've been all     over   
         D              A  
And it's been  all over you

                  A5    B5   D5
It's a beautiful day           
G5    D5          A5 
Don't let it get away
                 A5     B5   D5    G5
It's a beautiful day                 
    D5             A5
Oooo    oooo_ooohh   

F#m      G      D               A          
Touch me        Take me to that other place
F#m         G          D             A            
Teach    me         I know I'm not a hopeless case

Riff3 Bridge lead:

e|-9-----9-10----10--10--10----|
B|----12-----------------------|
G|-------------12--12--12--12--|
D|-----------------------------|
A|-----------------------------|
E|-----------------------------|

e|-10-10-9-10-9--9--9--9---|
B|-------------12-12-12-12-|
G|-------------------------|
D|-------------------------|
A|-------------------------|
E|-------------------------|

Bridge:
A Bm D G D A  

Em                             
See the world in green and blue
D                              
See China right in front of you
Em              G              
See the canyons broken by cloud
D                                       
See the tuna fleets clearing the sea out
Em              G             
See the Bedouin fires at night
D                                    
See the oil fields at first light and
Em                  G                
See the bird with a leaf in her mouth
D                                      
after the flood all the colors came out

ddaayy... ddaayy...
aa... ah...     take me out

                  A5    B5   D5    G5
It's a beautiful day                 
      D5          A5 
Don't let it get away
          A5   B5   D5   G5 
Beautiful day   aa  aa  aaay
D5             A5    
aaa aaaahaaaa  aaaahh

F#m      G      D               A          
Touch me        Take me to that other place
F#m         G          D             A            
Teach    me         I know I'm not a hopeless case

A                   Bm        D       G  
What you don't have you don't need it now
D                          A               
What you don't know you can feel it somehow
A                   Bm        D       G  
What you don't have you don't need it now
D                  A
Don't need it now   

                 A5     B5   D5    G5     D5   A5
Was a beautiful  day                             

Bridge:
A5 B5 D5 G5 D5 A5

Riff4 End:

e|-------2-------2-----0-------|
A|-2--3------------------------|
G|----------4------------------|
D|-----------------------------|
A|-----------------------------|
E|-----------------------------|

e|--------2-----------------3-|
A|--2--3--------------2-3-----|
G|-----------4------4---------|
D|----------------5-----------|
A|----------------------------|
E|----------------------------|
If you like the way the song is edited, help us grow with your like please


More songs of U2:
In The Name Of Love One The Sweetest Thing Ordinary Love Every Breaking Wave Where The Streets Have No Name Sunday Bloody Sunday I Still Haven't Found What I'm Looking For With or without you
More songs from the category Rock:
Queen - Under Pressure
David Bowie - Space Oddity
Aerosmith - Don't Wanna Miss A Thing
David Bowie - Ziggy Stardust
Blink 182 - All The Small Thing