Hide Commercials
Did you know?
No 'did you know', Add an info for this song
Michael Jackson - Beat It Chords
Ranking: 5.88 Sign Up and Rank!

Michael Jackson - Beat It



Category: Pop | Familiar Songs
Intro:

e|-----|-----------------|-----------------|
B|-----|-----------------|-----------------|
G|-----|-----------------|-----------------|
D|-----|-------5-2-----4-|---2-------------|
A|-----|-----2-----------|-----5---5-------|
E|--0--|---3-------------|---------------0-|

e|-----------------|-------------|
B|-----------------|-------------|
G|-----------------|-------------|
D|-------5-2-----4-|---2---------|
A|-----2-----------|-----5-------|
E|---3-------------|-------------|

e|------------------------------|-----------------|
B|------------------------------|-----------------|
G|-x--x-x-12--x-x-12---9----x-x-|-11---x-x-11---7-|
D|-x--x-x-12--x-x-12---9----x-x-|-12---x-x-12---7-|
A|------------------------------|-----------------|
E|------------------------------|-----------------|

Verse:

      E5          D5                E5             
e|------------------|-----------|-----------------|
B|------------------|-----------|-----------------|
G|--x-9-9---9---x-7-|-7---7-----|-x-9-9---9---x-7-|
D|--x-9-9---9---x-7-|-7---7-----|-x-9-9---9---x-7-|
A|--x-7-7---7---x-5-|-5---5-----|-x-7-7---7---x-5-|
E|------------------|-----------|-----------------|

   D5           C5             
e|----------|-----------------|
B|----------|-----------------|
G|-7---7----|-x-5-5---5---x-7-|
D|-7---7----|-x-5-5---5---x-7-|
A|-5---5----|-x-3-3---3---x-5-|
E|----------|-----------------|

   D5              E5              D5      
e|-------------|-----------------|--------|
B|-------------|-----------------|--------|
G|-7---7-------|-x-9-9---9---x-7-|-7---7--|
D|-7---7-------|-x-9-9---9---x-7-|-7---7--|
A|-5---5-------|-x-7-7---7---x-5-|-5---5--|
E|-------------|-----------------|--------|

Em                                             D
They told him, Don’t you ever come around here  
           Em             
Don’t wanna see your face,
                   D 
You better disappear.
        C                              
The fires in their eyes and their words
         D      
are really clear
     Em   
So beat it
       Em   
Just beat it
Em            
You better run
                  D       
You better do what you can
           Em           
Don’t wanna see no blood
                  D 
Don’t be a macho man
        C       
You wanna though
           D          
Better do what you can
     Em   
So beat it
              D     
But you wanna be bad

Chorus:

Em                 
Just beat (beat it)
D                
Beat it (Beat it)
Em                           D
No one wants to be defeated   
          Em                                 D
Showin’ how funky and strong is your fight    
   Em                              D  
It doesn’t matter who’s wrong or right
        Em  
Just beat it
        D   
Just beat it
        Em  
Just beat it
        D   
Just beat it
Em                    
They’re out to get you
           D              
Better leave while you can
           Em       
Don’t wanna be a boy
                   D
You wanna be a man  
        C           
You wanna stay alive
           D          
Better do what you can
      Em  
So beat it
        D   
Just beat it
Em                   
You have to show them
                                D
that you’re really not scared    
            Em               
You’re playin’ with your life
                      D    
This ain’t no truth or dare
             C                      
They’ll kick you, then they beat you
                               D
then they’ll tell you its fair  
      Em  
So beat it
             D      
But you wanna be bad

Repeat Chorus and fade
If you like the way the song is edited, help us grow with your like please
More songs of Michael Jackson:
Slave To The Rhythm Earth Song
More songs from the category Pop:
ABBA - Dancing Queen
Ray Charles - Hit The Road Jack
Adam Levine and R. CITY - Locked Away
OMI - Cheerleader
Massive Attack - Teardrop