My Songs
Hide Ads »

Smash Mouth - All Star

Verse:

G|---------------------------------------------------|--|
D|---------------------------------------------------|x2|
A|-------3-4---6-----1-2---4-----3-4---6-----1-2---4-|--|
E|---2-----------4-----------2-----------4-----------|--|

Interlude:

G|------------------------|--|
D|------------------------|--|
A|-------2---2-3---2------|--|
E|---2--------------------|x2|
Smash Mouth
I´m A Beliver
Rock
Two Feet - I Feel Like I'm Drowning
The Corrs - breathless
Jimi Hendrix - Fire
Oasis - Wonderwall
Rolling Stones - She's A Rainbow