Hide Commercials
Did you know?
No 'did you know', Add an info for this song
Juanes - A Dios Le Pido Chords
Ranking: 5.94 Sign Up and Rank!

Juanes - A Dios Le Pido



Category: Undefined
Intro:

e||----5--5--8--5----------------------------|
B||----5--5--5--5----------------------------|
G||----5--5--5--5-------4---7---7^4------4---|
D||----7--7--7--7---6----------------6-------|
A||-0----------------------------------------|
E||------------------------------------------|

e|------------------------------|--||
B|------------------------------|--||
G|-7---7^4-----4---7---7^4------|--||
D|----------6---------------6--7|x2||
A|------------------------------|--||
E|------------------------------|--||

e|------------------------------------------|
B|-------5-----5----------5-----5-----------|
G|---5------5-----5----5-----5-----7--4-----|
D|7-----------------7--------------------6--|
A|------------------------------------------|
E|------------------------------------------|

e|---------------------------------|
B|---------------------------------|
G|----4--7--7^4----4--7--7^4-------|
D|-6------------6-------------6--7-|
A|---------------------------------|
E|---------------------------------|

e|---------------5--------5-----5-------|
B|------5-----5------5-------5------9---|
G|---5-----5------------5-------------9-|
D|7-------------------------------------|
A|--------------------------------------|
E|--------------------------------------|

e|----------7--10--8--7------8--7----------|
B|-9------9--------------10--------10--9-10|
G|---9--9----------------------------------|
D|-----------------------------------------|
A|-----------------------------------------|
E|-----------------------------------------|

Am                        
Que mis ojos se despierten
                   E   
con la luz de tu mirada
              Am              
yo a Dios le pido que mi madre
      Dm                   E          
no se muera y que mi padre me recuerde
           Am                      Dm 
a Dios le pido Que te quedes a mi lado
                E                  
y que mas nunca te me vayas mi vida
           Am                    Dm   
a Dios le pido que mi alma no descanse
              E                   
cuando de amarte se trate mi cielo
           Am                            
a Dios le pido Por los d?as que me quedan
                         E         
y las noches que aun no llegan  yoo
           Am               
a Dios le pido por los hijos
       Dm                 E          
de mis hijos y los hijos de tus hijos
           Am                     Dm   
a Dios le pido Que mi pueblo no derrame
               E                  
tanta sangre y se levante mi gente
           Am                     Dm  
a Dios le pido que mi alma no descanse
              E                   
cuando de amarte se trate mi cielo
           Am            
a Dios le pido Un segundo
       E/Ab            G
mas de vida para darte  
               D/F#           
y mi corazon entero entregarte
Am                 E/Ab            G
Un segundo mas de vida para darte   
                   D/F#               F
y a tu lado para siempre yo quedarme   
F                      E             C  
un segundo mas de vida yo a Dios le pido
                        G  
Que si me muero sea de amor
                       Am 
y si me enamoro sea de vos
                             G 
y que de tu voz sea este coraz?
                            C  
n todos los d?as a Dios le pido
                        G  
Que si me muero sea de amor
         E/Ab          Am 
y si me enamoro sea de vos
           D/F#              G 
y que de tu voz sea este coraz?
            E/Ab           Am    E
n todos los d?as a Dios le pido   
           Am   E
a Dios le pido   

Repeat Intro

Am                        
Que mis ojos se despierten
                   E   
con la luz de tu mirada
              Am              
yo a Dios le pido que mi madre
      Dm                   E         
no se muera y que mi padre me recuerd
           Am                      Dm 
a Dios le pido Que te quedes a mi lado
                E                  
y que mas nunca te me vayas mi vida
           Am                    Dm   
a Dios le pido que mi alma no descanse
              E                   
cuando de amarte se trate mi cielo
           Am                
a Dios le pido Un segundo mas
   E/Ab            G
de vida para darte  
               D/F#            Am
y mi corazon entero entregarte   
Am                 E/Ab            G
Un segundo mas de vida para darte   
G                  D/F#               F
y a tu lado para siempre yo quedarme   
F                      E             C  
un segundo mas de vida yo a Dios le pido
                        G       
Que si me muero sea de amor y si
                  Am 
me enamoro sea de vos
                             G               
y que de tu voz sea este corazon todos los d?
              C  
as a Dios le pido
                        G       
Que si me muero sea de amor y si
    E/Ab          Am 
me enamoro sea de vos
           D/F#              G               
y que de tu voz sea este coraz?n todos los d?
              C  
as a Dios le pido
If you like the way the song is edited, help us grow with your like please
More songs of Juanes:
More songs from the category Undefined:
System Of A Down - Blue
ABBA - People Need Love
Maroon 5 - Harder To Breathe
AC/DC - Big Balls
Radiohead - Inside My Head