Hide Commercials
Did you know?
No 'did you know', Add an info for this song
Suzanne Vega - Luka Chords
Ranking: 5.84 Sign Up and Rank!

Suzanne Vega - Luka



Category: Pop | Familiar Songs
Intro:

             F#  C#4  B9 C#4      Ebm C#  
e|--------7--9-----------------7--14-----|
B|-7--9------------------7--9------------|
G|---------------------------------------|
D|---------------------------------------|
A|---------------------------------------|
E|---------------------------------------|

      Ebm  C#           B9 C#4     B9 C#4   F#
e|--------------7-6----6---------------------|
B|-12--12---7--------9---7------6--7---------|
G|-------------------------------------------|
D|-------------------------------------------|
A|-------------------------------------------|
E|-------------------------------------------|

Guitar intro & Verse:

  F#            C#4        Badd9         C#4      
e|--------------------------------2--------------|
B|--------------------7--------2----2---------7--|
G|----3---3------------6-------4----------------6|
D|----4---4-------6------------4-----------6-----|
A|----4---4-----4-----------2------------4-------|
E|-2---------------------------------------------|

F#         C#4    Badd9
My name is Luka,       
Badd9           C#4           F#
And i live on the second floor  
F#        C#4              B9
I live upstaires from you,   
                  C#4           Ebm
yes i think youve seen me before   
Ebm         C#                  Ebm
if you hear something late at night
Ebm           C#                   B    
some kind of trouble, some kind of fight
           C#               B    
just don't ask me what is was  x2
            C#                F#
just don't ask me what it was   

F#           C#4            Badd9
I think it's cos i'm clumsy,     
Badd9       C#4           F#
I try not to talk so loud   
F#          C#4              
maybe it's because i'm crazy,
Badd9               C#4    Ebm
I try not to act to proud     
Ebm       C#                Ebm
they only hit you till you cry 
          C#                 B  
and after that you don't ask why
               C#          B   
you just don't argue anymore x2
               C#         F#
you just don't argue anymore

Solo:

       F#                  C#                   B 
e|-----------------------------------------------|
B|7-7-7--7-7-6-6-7-7--7-7-7-9-9-7-7-9-7---7-7-7--|
G|-----------------------------------------------|
D|-----------------------------------------------|
A|-----------------------------------------------|
E|-----------------------------------------------|

  B               C#               F#             
e|--------------------------------------------6-6|
B|-7-7-6-6---------7-7-6-6-7-7-7-7-7--7-7-9-9----|
G|---------6-6-6-6-------------------------------|
D|-----------------------------------------------|
A|-----------------------------------------------|
E|-----------------------------------------------|

     C#               B                 C#  
e|-----------------------------------------|
B|-9-9-9--9-9-9-9-7-7-7--7-7-6-6-7-7-------|
G|-----------------------------------6-6-6-|
D|-----------------------------------------|
A|-----------------------------------------|
E|-----------------------------------------|

F#    C#4           B9
Yes i think i'm okay, 
                C#4        F#
walked into the door again   
F#     C#4                     B9
if you ask that's what i'll say, 
                 C#4           Ebm
as it's not your business anyway  
            C#            Ebm
i guess i'd like to be alone 
        C#                 B   
nothing broken , nothing thrown
           C#            B     
just don't ask me how i am   x2
           C#              F#
just don't ask me how i am   

Repeat First Verse

Ebm       C#                Ebm
they only hit you till you cry 
          C#                 B  
and after that you don't ask why
               C#          B   
you just don't argue anymore x2
               C#         F#
you just don't argue anymore

Repeat Solo
If you like the way the song is edited, help us grow with your like please
More songs of Suzanne Vega:
Tom's Diner
More songs from the category Pop:
Celine Dion - The Power Of Love
B.o.B and Jessie J - Price Tag
Take That - Back for Good
ABBA - Tiger
Christina Perri - Arms