Hide Commercials
Did you know?
No 'did you know', Add an info for this song
Red Hot Chili Peppers - Scar Tissue Chords
Ranking: 6.02 Sign Up and Rank!
Intro:

e|----------------------------------------|
B|----10-----10---10----10----------------|
G|---------------------------9---9s10--10-|
D|----------------------------------------|
A|-8-------8----8----8--------------------|
E|---------------------------8---8s10-----|

e|--------------------------------------------|
B|-----------------------------10---10----10--|
G|----10----10-----10s9-----------------------|
D|--------------------------------------------|
A|-------------------------8------8----8-----8|
E|-10----10----10--------8--------------------|

e|-----10--8------------------------|
B|-----10--8--------------8---8-----|
G|-------------9s10--------------10-|
D|----------------------------------|
A|------8---------------------------|
E|-------------8s10-----------------|

F                               Dm
Scar tissue that I wish you saw   
Dm                          F
Sarcastic mister know it all 
F                                       Dm
Close your eyes and I'll kiss you 'cause  
Dm                        F
With the birds I'll share  

Chorus:

F                               Dm         F
With the birds I'll share  This lonely view 
F                               Dm          
With the birds I'll share  This lonely view 

F                         Dm
Push me up against the wall 
Dm                                   F
Young Kentucky girl in a push-up bra  
F                      
Fallin' all over myself
   Dm                                            F
To lick your heart and taste your health 'cause   

Repeat Chorus x2

Bridge:

     Dm          C      Dm            Dm/E        F 
e|-------------------------------------------------|
B|-13s10------10s8----8s10-10---10s12-12---12s13-13|
G|-------------------------------------------------|
D|-------------------------------------------------|
A|-------------------------------------------------|
E|-------------------------------------------------|

F                             Dm
Blood loss in a bathroom stall  
Dm                                 F
Southern girl with a scarlet drawl  
F                                Dm
Wave good-bye to ma and pa 'cause  
Dm                        F
With the birds I'll share  

Repeat Chorus

(play intro...)
Soft spoken with a broken jaw
Step outside but not to brawl
(play intro...)
Autumn's sweet we call it fall
I'll make it to the moon if I have to crawl and

Repeat Chorus

Solo:

   Dm                       C      Dm     
e|-8s10---10s8---8s5-5----5s3----8-------|
B|---------------------------------10----|
G|---------------------------------------|
D|---------------------------------------|
A|---------------------------------------|
E|---------------------------------------|

                           
e|-8s10----12-------------|
B|-------------13s10--10--|
G|------------------------|
D|------------------------|
A|------------------------|
E|------------------------|

            C        Dm     Dm   Dm/E         F  
e|--------------------------10s12-12---12s13-13-|
B|--11s13s8-8----13--10-------------------------|
G|----------------------------------------------|
D|----------------------------------------------|
A|----------------------------------------------|
E|----------------------------------------------|

F                               Dm
Scar tissue that I wish you saw   
Dm                          F
Sarcastic mister know it all 
F                                       Dm
Close your eyes and I'll kiss you 'cause  
Dm                        F
With the birds I'll share  

Repeat Chorus x2

Solo2:

     Dm                       C              Dm   
e|15s17----17s15-15~---15b17-12----12b13b12--10~-|
B|-----------------------------------------------|
G|-----------------------------------------------|
D|-----------------------------------------------|
A|-----------------------------------------------|
E|-----------------------------------------------|

                            Dm                 C  
e|-----------------------------------------------|
B|-13-13s15-15s13-13s15-15-15s13-------11b13--9--|
G|-------------------------------14--------------|
D|-----------------------------------------------|
A|-----------------------------------------------|
E|-----------------------------------------------|

           Dm                               
e|-----------------------------------------|
B|-11b13--10-------------------------------|
G|--------------------------14~---14-14-14-|
D|---------------12b14b12------------------|
A|-----------------------------------------|
E|-----------------------------------------|

               C               Dm               
e|---------------------------------------------|
B|---------------------------------------------|
G|-12b14-12--12b14-10--------------------12s14-|
D|------------------------10b12----------------|
A|------------------------------12-------------|
E|---------------------------------------------|

                            C              Dm  
e|----13b12-12------10------------------------|
B|---------------13-------10---12s13--8----10-|
G|--------------------------------------------|
D|--------------------------------------------|
A|--------------------------------------------|
E|--------------------------------------------|
If you like the way the song is edited, help us grow with your like please


More songs of Red Hot Chili Peppers:
Purple Stain Higher Ground Road Trippin' Otherside Savior By The Way Dani California Around the World Emit Remmus Parallel Universe
More songs from the category Rock:
Green day - 21 Guns
Red Hot Chili Peppers - Easily
Alice In Chains and Chris Cornell - Right Turn
Nirvana - You Know You're Right
Linkin Park - Numb