Hide Commercials
Did you know?
No 'did you know', Add an info for this song
Red Hot Chili Peppers - Savior Chords
Ranking: 5.98 Sign Up and Rank!

Red Hot Chili Peppers - Savior



Category: Undefined
Intro:

  Dm                  C            G       
e|13b15~--15b13p10---13~---10--13b15~b13--|
B|----------------------------------------|
G|----------------------------------------|
D|----------------------------------------|
A|----------------------------------------|
E|----------------------------------------|

   Dm               C        G       
e|----------------------------------|
B|----------13----------------------|
G|-12s14--------11h12-------10h12p10|
D|-----------------------12---------|
A|----------------------------------|
E|----------------------------------|

Dm               C    G   Dm
Dusting off your savior     
Dm                 C       
You were always my favorite
G         Dm    C        G    Dm
Always my man   All in a hand   
Dm                   C      
To celebrate you is greater 
G          E     E             Dm
Now that I can   Always my man   

Dm                 C        G Dm
Now you see what I came for     
Dm                 C       
No one here is to blame for
G        Dm     C        G    Dm
Misunderstand   All in a hand   
Dm                       C      
Just like you 'cause you made me
G          E    E            
All that I am   All in a hand

Bridge:

e|---------------------------------------|
B|---3--------3---------3--------3-----3-|
G|---------------------------------------|
D|---------------------------------------|
A|-5----5--3-----3-----------------------|
E|------------------3------3--3-----3----|

e|-------------------------------------|
B|----3--------3--------3------3-------|
G|-------------------------------------|
D|-------------------------------------|
A|-5-----5--3-----3--------------------|
E|-------------------3------3--3---6--6|

  Dm              C             
A butterfly that flaps its wings
 G                         
affecting almost everything
    Dm              C        
The more I hear the orchestra
    G               G/Bb           Dm
the more I have something to bring   
 Dm       C            G        
And now I see you in a beautiful
                    Dm
and different light   
Dm          C           G          
He's just a man and any damage done
    G/Bb         
will be all right
Dm   C  G        Dm   C G  G/Bb
Call      out my name          
Dm   C  G       Dm   C G
Call      and I came    

Dm               C    G   Dm
Dusting off your savior     
Dm              C     
Forgiving any behavior
G           Dm    C        G    Dm
He's just a man   All in a hand   
Dm                      C    
Your hero's destined to waver
G      E     E            
Anyone can   Always my man

Dm               C   G   Dm
I would never betray you   
Dm                   C         
Look at me who could raise you 
G           Dm    C            G    Dm
Face in the sand  Safe in your hand   
Dm                 C       
You were always my favorite
G         E     E            
Always my man   All in a hand

Repeat Bridge

Dm         C           
We are the red hots and
      G                         
we're loving up the love me nots
    Dm               C         
The flowers in your flower pots
    G              G/Bb       Dm
are dancing on the table tops   
 Dm       C            G        
And now I see you in a beautiful
                    Dm
and different light   
Dm          C            G            
He's just a man and everything he does
    G/Bb         
will be all right
Dm   C  G        Dm   C G  G/Bb
Call      out my name          
Dm   C  G       Dm   C G
Call      and I came    

Dm               C    G   Dm
Dusting off your savior     
Dm                        C    
The life that you have narrated
G           Dm 
You were my man

Outro:
Dm C G x9
Dm
If you like the way the song is edited, help us grow with your like please
More songs of Red Hot Chili Peppers:
Parallel Universe Snow Dani California Give It Away Universally Speaking Californiacation Get On Top Brendan's Death Song Easily This Velvet Glove
More songs from the category Undefined:
Alanis Morissette - All I Really Want
System Of A Down - Drugs
Avril Lavigne - I'm With You
Leonard Cohen - Hey, That's No Way to Say Goodbye
Metallica - The Memory Remains