My Songs
Hide Ads »

Pearl Jam - Jeremy


Intro:

G||----------------------------12x------------------------------------|
D||----------7-----5-------12x----------------7-----5---------12x-----|
A||-0--5h7-0-----0-------------------0--5h7-0-----0---------------12x-|
E||-------------------------------------------------------------------|

G|----------------------------12x-------------------------||
D|----------7-----5-------12x--------------------7-----5--||
A|-0--5h7-0-----0------------------12x--0--5h7-0-----0----||
E|--------------------------------------------------------||
Pearl Jam
BlackWhy GoLast KissYellow LedbetterAliveOnce
Rock
Eagle Eye Cherry - Save Tonight
Roseaux - I Am Going Home
The Walters - I Love You So
Adam Ant - Wonderful
Jimi Hendrix - Little Wing