Hide Commercials
Did you know?
No 'did you know', Add an info for this song
Pearl Jam - Jeremy Chords
Ranking: 5.96 Sign Up and Rank!

Pearl Jam - Jeremy



Category: Rock | Guitar solo
Intro:

e|----------------------------|
B|----------------------------|
G|-----------------------12x--|
D|----------7----5---12x------|
A|-0--5h7-0----0--------------|
E|----------------------------|

e|----------------------------------------------|
B|----------------------------------------------|
G|----------------------------------------------|
D|----------7----5-----12x---------------7----5-|
A|-0--5h7-0----0-----------12x-0--5h7-0----0----|
E|----------------------------------------------|

e|---------------------------------|
B|---------------------------------|
G|-------12x-----------------------|
D|---12x--------------------7----5-|
A|------------12x--0--5h7-0----0---|
E|---------------------------------|

Verse:

e|------------------|
B|------------------|
G|------------------|
D|----------7-----5-|
A|-0--5h7-0-----0---|
E|------------------|

A                                         
At home, drawing pictures of mountain tops
A              
with him on top
A                                   
Lemin yellow sun, arms raised in a V
A                                        
And the dead lay in pools of maroon below
A                          
Daddy didn't give attention
A                                     
Oh, to the fact that mommy didn't care
A                                              
King Jeremy the wicked...oh, ruled his world...
A F             Dm  E      A        
Jeremy spoke in    class today... x2

A                                    
Clearly I remember pickin' on the boy
A                            
Seemed a harmless little fuck
A                              
Ooh, but we unleashed a lion...
A                                                    
Gnashed his teeth and bit the recess lady's breast...
A                                                   
How can I forget? And he hit me with a surprise left
A                                            
My jaw left hurtin'... ooh, dropped wide open
A                                            
Just like the day... oh, like the day I heard
A                                 
Daddy didn't give affection, no...
A                                                 
And the boy was something that mommy wouldn't wear
A                                           
King Jeremy the wicked...oh, ruled his world
A F             Dm  E      A        
Jeremy spoke in    class today... x3

A                                         
Try to forget this...try to forget this...
A                                        
Try to erase this...try to erase this... 
A               A F Dm E A
From the blackboard...    

A F             Dm  E      A        
Jeremy spoke in    class today... x2
A G             Dm       E    
Jeremy spoke in,   spoke in...
A                             
Jeremy spoke in,   spoke in...
A F             Dm  E      A     
Jeremy spoke in    class today...
A            F Dm E A  F Dm E A
Woo...  (x~)                   

Woooooohhh...spoke in, spoke in...

Woooooohhh...uh huh, uh huh...
If you like the way the song is edited, help us grow with your like please


More songs of Pearl Jam:
Last Kiss Yellow Ledbetter Alive Once Why Go Black
More songs from the category Rock:
Aerosmith - Pink
U2 - In The Name Of Love
Pink floyd - Wish You Were Here
Metallica - Turn the Page
Madness - House Of Fun