Hide Commercials
Did you know?
No 'did you know', Add an info for this song
Metallica - Fade To Black Chords
Ranking: 6.04 Sign Up and Rank!

Metallica - Fade To Black



Category: Undefined
Intro: x5

e|----------------|---------------|
B|----------------|---------------|
G|-----0----------|----0----------|
D|---4---4---4---4|--4---4---4---4|
A|-2-------2---5--|0-------0---5--|
E|----------------|---------------|

e|---------------|---------------|
B|---------------|---------------|
G|----0----------|----2----------|
D|--4---4---4---4|--2---2---2---2|
A|2-------2---5--|4-------4---0--|
E|---------------|---------------|

Bridge:
Am C G Em x4

Am                   C       
Life it seems will fade away,
G                  Em      
Drifting further every day.
Am                   C     
Getting lost within myself,
G                  Em        
Nothing matters, no one else.
Am                   C       
I have lost the will to live,
G                  Em       
simply nothing more to give.
Am                   C       
There is nothing more for me.
G                  
Need the end to set
E      
me free

Bridge:
A C A D5 E5
C5 A C Ab5 F#5 E
A C A D5 E5
C5 A C Ab5 F#5 E
Am C G Em  x4

Am                   C          
Things not what they used to be,
G                  Em    
missing one inside of me.
Am                   C             G
Deathly lost, this can\'t be real,  
                 Em           
cannot stand this hell I feel.
Am                   C  
Emptiness is filling me,
G                  Em 
to the point of agony.
Am                   C        G
Growing darkness taking dawn,  
G                
I was me, but now
E          
he's   gone

Bridge:
A C A D5 E5
C5 A C Ab5 F#5 E
A C A D5 E5
C5 A C Ab5 F#5 E

pre-verse melody:

           D5 E5       D5 E5   G5  F#5  D5
e|---------------------------------------|
B|---------------------------------------|
G|-------------------------------------4-|
D|--9--9--9--7--7--7--5--5--5--4--4--4---|
A|---------------------------------------|
E|---------------------------------------|

            D5 E5       D5 E5   G5  F#5 D5
e|---------------------------------------|
B|---------------------------------------|
G|-------------------------------------4-|
D|--9--9--9--7--7--7--5--5--5--4--4--4---|
A|---------------------------------------|
E|---------------------------------------|

D5 E5        
No one but me
D5  E5      G5  F#5          D5  
Can save myself but it's too late
D5  E5            
Now I can't think,
D5    E5       G5  F#5   D5 
think why I should even try.

Bridge:
D5 E5  D5 E5 G5  F#5  D5
D5 E5  D5 E5 G5  F#5  D5

D5 E5          
Yesterday seems
D5  E5      G5  F#5         D5
As though it never existed    
D5  E5               
Death greats me warm,
D5    E5       G5  F#5   D5 
Now I will just say goodbye.

           D5 E5       D5 E5   G5  F#5  D5
e|---------------------------------------|
B|---------------------------------------|
G|-------------------------------------4-|
D|--9--9--9--7--7--7--5--5--5--4--4--4---|
A|---------------------------------------|
E|---------------------------------------|

           D5 E5       D5 E5   G5  F#5  D5
e|---------------------------------------|
B|---------------------------------------|
G|-------------------------------------4-|
D|--9--9--9--7--7--7--5--5--5--4--4--4---|
A|---------------------------------------|
E|---------------------------------------|
If you like the way the song is edited, help us grow with your like please
More songs of Metallica:
Battery Sad But True Nothing Else Matters One Enter Sandman The Memory Remains Turn the Page
More songs from the category Undefined:
R.E.M. - Pop Song 89
Coldplay - Viva La Vida
ABBA - Fernando
AC/DC - Rock and Roll Damnation
Alanis Morissette - Forgiven