Hide Commercials
Did you know?
No 'did you know', Add an info for this song
Metallica - Enter Sandman Chords
Ranking: 6.02 Sign Up and Rank!

Metallica - Enter Sandman



Category: Undefined
Intro:
E5 A5 E5
E5 G5 F#5 G5 F#5 E5

Riff:

e||------------------------------|
B||------------------------------|
G||------------------------------|
D||---------5--------------------|
A||-----7-----------------7------|
E||-0----------6-----5-----------|

                     F5     
say your prayers, little one
                 F5  
don't forget, my son,
                G5 
to include everyone

Bridge:
F#5 G5 F#5

E5                    F5   
tuck you in, warm within
                   F5 
keep you free from sin
                   G5    
till the sandman he comes

Bridge:
F#5 G5 F#5

sleep with one eye open
gripping your pillow tight

Pre Chorus:

e|----------------------------|-------------------------|
B|----------------------------|-------------------------|
G|-------2--------------------|-------2-----------------|
D|----4-----------4-----------|----4-----------4--------|
A|----------3--2--------------|----------3--2-----------|
E|-2--------------------------|-2-----------------------|

e|----------------------------|-------------------------|
B|----------------------------|-------------------------|
G|-------2--------------------|-------2-----------------|
D|----4-----------4-----------|----4-----------4--------|
A|----------3--2--------------|----------3--2-----------|
E|-2--------------------------|-2------------------14/--|

Chorus:


e|----------------------------|
B|----------------------------|
G|----------------------------|
D|----------4-----------------|
A|-4--4--3--2-----------------|
E|-2--------------------------|

F#5  B5  F#5  B5
Ex   it: light  
F#5  B5  E5   
Ent  er: night
F#5 B5   E5  
take  my hand
      G5     F#5     G5 F#5    E5
we're off to never-never   land  

                     F5          
something's wrong, shut the light
                 F5   
heavy thoughts tonight
                G5           
and they aren't of snow white

Bridge:
F#5 G5 F#5

E5                    F5         
dreams of war, dreams of liars
                   F5  
dreams of dragon's fire
                G5          
and of things that will bite

sleep with one eye open
gripping your pillow tight

Repeat Chorus

Solo:

e|--------------------|------------------------------------|
B|-15-15-15-12-----12-|----------12-12-----15fb--15b--15s0-|
G|-------------14b----|--14fb-14--------14-----------------|
D|--------------------|------------------------------------|
A|--------------------|------------------------------------|
E|--------------------|------------------------------------|

e|--------------------------------------------------------------------|
B|--------------------------------------------------------------------|
G|-12h14-14-14-14p12-12-12-12h14-14-14-14p12-12-12--14p12-------------|
D|--------------------------------------------------------14-14p12----|
A|-----------------------------------------------------------------14-|
E|--------------------------------------------------------------------|

e|---------------------------------12-12-12-----12-12-12------12-12-12|
B|------------------------------15b---------15b----------15b----------|
G|--------------------------------------------------------------------|
D|--------------------------------------------------------------------|
A|--14p12p10----------------------------------------------------------|
E|------------12s0----------------------------------------------------|

e|-----12-12-12-----12-12-12h15p12---12h15p12--12h15p12-12-15-12-12-|
B|--15b----------15b------------------------------------------------|
G|------------------------------------------------------------------|
D|------------------------------------------------------------------|
A|------------------------------------------------------------------|
E|------------------------------------------------------------------|

e|-14-14-17p14----17p14----17p14----17p14--19p15----19p15----19p15----|
B|-------------15-------15-------15--------------17-------17----------|
G|--------------------------------------------------------------------|
D|--------------------------------------------------------------------|
A|--------------------------------------------------------------------|
E|--------------------------------------------------------------------|

e|--21p17----21p17----21p17----22b~~~~~~~22s0-----------------------|
B|--------17-------17-------17-------------------9hb--------9-------|
G|-----------------------------------------------9fb--------9-------|
D|------------------------------------------------------------------|
A|------------------------------------------------------------------|
E|------------------------------------------------------------------|

e|-----------------------------------------------------------------|
B|--9hb-----------9--------9hb-------9b------------------10-10~~~~~|
G|--9b------------9--------9b--------9b----7-9~~~~~-----7----------|
D|--------------------------------------------------7h9------------|
A|-----------------------------------------------------------------|
E|-----------------------------------------------------------------|

e|-------------------------------------------------------------------|
B|--10-8-7---7s8s7--7------------------------------------------------|
G|---------9-------9--9-7---7--9p7---------------------------16b-14--|
D|------------------------9--------9p7---7-9-7---------------------16|
A|-------------------------------------9-------9-8-7-----------------|
E|---------------------------------------------------10-7s0----------|

e|----------------------------------------------------------------|
B|--------------------------------------------------------------17|
G|-14-16b-14~---------14-16b-14-----14-16b-14-------14------16b---|
D|--------------16--------------16------------16-16---------------|
A|----------------------------------------------------------------|
E|----------------------------------------------------------------|

e|--------------------------------------|
B|-----17----17-----------------17------|
G|-16b----16b---16b-----------------16b-|
D|--------------------------------------|
A|--------------------------------------|
E|--------------------------------------|

e|--21p17--21p17--21p17--21p17--21p17--21p17--21p17-22fb--22-22-22----|
B|-------17-----17-----17-----17-----17-----17------------------------|
G|--------------------------------------------------------------------|
D|--------------------------------------------------------------------|
A|--------------------------------------------------------------------|
E|--------------------------------------------------------------------|

e|-22-22-22~---------22s0------------------------------------------|
B|--------------------------10p8p7---------------------------------|
D|----------------------------------9---9p7------------------------|
G|------------------------------------------9--9p7-5-7b--5---------|
A|----------------------------------------------------------7------|
E|-----------------------------------------------------------------|

e|--------------------------------------------------------|
B|--------------------------------------------------------|
G|--------------------------------------------------------|
D|--------------------------------------------------------|
A|--7~-------------------5h7-----4~~~~~~~~~~~------0--2~~-|
E|--------------------------------------------------------|

hush little baby, don't say a word
and never mind that noise you heard
it's just the beasts under your bed

F#5                         
in your closet, in your head

F#5  B5  F#5  B5
Ex   it: light  
F#5  B5  E5   
Ent  er: night

F#5 B5   E5  
grain of sand
F#5  B5  F#5  B5
Ex   it: light  
F#5  B5  E5   
Ent  er: night
F#5 B5   E5  
take  my hand
      G5     F#5     G5 F#5    E5
we're off to never-never   land  

Bridge:
E5  E5 G5 E F5

Outro:

e|------------------------------------------------------|
B|--8--7h8p7--------------------------------------------|
G|-----------7--7h9p7----------7--9------9-----------9--|
D|--------------------9-7----7----9------9-----------9--|
A|-------------------------9----------------------------|
E|------------------------------------------------------|

-
If you like the way the song is edited, help us grow with your like please
More songs of Metallica:
One Battery Fade To Black The Memory Remains Turn the Page Nothing Else Matters Sad But True
More songs from the category Undefined:
Alanis Morissette - Your House
Green day - Welcome To Paradise
AC/DC - Ain't Nosie Pollution
Bob Dylan - Don't Think Twice
Leonard Cohen - Lady Midnight