My Songs
My Songs
Hide Ads »

Metallica - The Memory Remains


Editor: TAB4U Staff
Undefined
To view Strummings you must be a logged in userSign up \ Login
Auto Scroll Add to my songs
Riff:

e|-----------------------------------------------|
B|-----------------------------------------------|
G|-----------------------------------------------|
D|-----------------------5-7-7b-p5---------------|
A|------5h7~~--7-5h7-7~~-----------7~~-----5h7~~-|
E|-0--0---------------------------------0--------|

e|------------------------------------------------|
B|------------------------------------------------|
G|------------------------------------------------|
D|-------5-7-7b-p5-----------------------5-7-7bfp5|
A|-7-5h7-----------7~~-----5h7~~-7-5h7-7----------|
E|-----------------------0------------------------|

e|------------------------------------|
B|------------------------------------|
G|------------------------------------|
D|-----5-----5---2--------------------|
A|--------2------2--------------------|
E|--3------------0---3-3-3-3-3-3-3/12-|

Verse:

e|----------------------------------------------|
B|----------------------------------------------|
G|----------------------------------------------|
D|----------------------5-7-7b-p5---------------|
A|-----5h7~~--7-5h7-7~~-----------7~~-----5h7~~-|
E|-0-0---------------------------------0--------|

e|------------------------------------|
B|------------------------------------|
G|------------------------------------|
D|-------7fb----------------5-7-7b-p5-|
A|-7-5h7-------5h7~~--7-5h7-----------|
E|-----------0------------------------|

e|--------------------------------------------------|
B|--------------------------------------------------|
G|--------------------------------------------------|
D|----5-----5---------------------5-7-7b-p5------7fb|
A|-------2---------5h7~~--7-5h7~~-----------7~~-----|
E|-3-----------0-0----------------------------------|

e|---------------------------------------------|
B|---------------------------------------------|
G|---------------------------------------------|
D|-------------------------5-------------------|
A|--5h7~~-7-5h7-7~-------5-----5h7~~-7-5h7-7~~-|
E|0------------------5h7-----0-----------------|

e|-----------------------------|
B|-----------------------------|
G|-----------------------------|
D|-5-7-7b-p5------5-----5----2-|
A|-----------7-------2-------2-|
E|--------------3------------0-|

D5       E5    D5     E5    D5   E5     
Fortune, fame, mirror vain, gone insane,
        F5             
but the memory remains.

Bridge:
G G/B E5

E5                          
Heavy rings on fingers wave,
E5                            
another star denies the grave.
        G                
See the nowhere crowd cry
                  G/B       
the nowhere cheers of honor.
Like twisted vines that grow,
hide and swallow mansions whole.
                                 G     G/B    E5  
And dim the light of an already faded prima donna.
D5       E5    D5     E5    D5   E5     D5
Fortune, fame, mirror vain, gone insane.  
D5       E5    D5     E5    D5   E5     
Fortune, fame, mirror vain, gone insane,
        F5             
but the memory remains.

Bridge:
G G/B E5

E5                                    
Heavy rings hold cigarettes up to lips
E5                
that time forgets.
        G                   
While the Hollywood sun sets
              G/B
behind your back.
And can't the band play on,
just listen, they play my song.
D5 E5       D5 E5         D5 E5        
Ash to ash, dust to dust, fade to black
D5       E5    D5     E5    D5   E5     D5
Fortune, fame, mirror vain, gone insane.  
D5       E5    D5     E5    D5   E5     D5
Fortune, fame, mirror vain, gone insane.  
 
F5        G5                 
Dance little tin godd-ess.   
E5         B5         G5     D5     B5       
La da da da, da da da,      la da da da x4   
D5   E5      D5  E5     D5  E5             
Drift  away, fade away, little tin goddess.

D5 E5       D5 E5         D5 E5         
Ash to ash, dust to dust, fade to black.
D5       E5    D5     E5    D5   E5     D5
Fortune, fame, mirror vain, gone insane.  
D5       E5    D5     E5    D5   E5     D5
Fortune, fame, mirror vain, gone insane.  
        F5            
but the memory remains

D5 E5       D5 E5         D5 E5         
Ash to ash, dust to dust, fade to black.
        F5            
but the memory remains

                      G     G/B    E5 
Yeah! To the faded dreams encountered.
                      G     G/B    E5
Yeah, yeah, yeah, yeah.              

Bridge:
G G/B E5 F5
Bridge:
G E5 D5 F5 x4

       G5                        E5
Dance little tin godd-ess dance.   
        B5         G5     D5     B5        
La da da da, da da da,      la da da da  x9

Ending:
D5 F5 G E5 x4
More songs of Metallica:
Sad But True Battery Nothing Else Matters Turn the Page Fade To Black One Enter Sandman
More songs from the category Undefined:
Radiohead - Inside My Head
Metallica - Fade To Black
Led Zeppelin - No Quarter
Slipknot - Duality
ABBA - Fernando