Hide Commercials
Did you know?
No 'did you know', Add an info for this song
Chris Isaak - Wicked Game Chords
Ranking: 5.98 Sign Up and Rank!

Chris Isaak - Wicked Game



Category: Pop | Familiar Songs | Love Songs
Intro:

e|----------------------------|
B|-0------7------7s0-------0--|
G|----------------------------|
D|----------------------------|
A|----------------------------|
E|----------------------------|

                             A                     
e|-------------------------|----------------------|
B|-0-----7------7s0------0-|---5------------------|
G|-------------------------|--6--7-6-4-----2---1--|
D|-------------------------|-7-----------4---2----|
A|-------------------------|----------------------|
E|-------------------------|----------------------|

e|-2----0------------------------------|
B|---3----3--2----0--------------------|
G|-------------4----4-2--1-----1-2-4--.|
D|----------------------2----2--------.|
A|-------------------------------------|
E|-------------------------------------|

Bm               A                        E   
We were on fire  no one could save me but you.

e|----------|
B|----------|
G|---2---1--|
D|-4---2----|
A|----------|
E|----------|

Bm                  A                   E 
Strange what desire make foolish people do

e|----------|
B|----------|
G|---1-2-4--|
D|-2--------|
A|----------|
E|----------|

Bm                   A                      E  
I never dreamed that I'd meet somebody like you
Bm                   A                      E  
I never dreamed that I'd lose somebody like you

    Bm  A                       E   
No, I     don't want to fall in love
(This girl is only gonna break your heart)
    Bm  A                       E   
No, I     don't want to fall in love
(This girl is only gonna break your heart)
     Bm   A  E
With you      
     Bm   A  E
With you      

Bm                     A                         E  
What a wicked game to play  to make me feel this way
Bm                            A               E  
What a wicked thing to do  to let me dream of you
Bm                          A                   E  
What a wicked thing to say  you never felt this way
Bm                            A                E  
What a wicked thing to do  to make me dream of you

    Bm  A               E   
And I     wanna fall in love
(This girl is only gonna break your heart)
    Bm  A                       E   
And I     don't want to fall in love
(This girl is only gonna break your heart)

World was on fire
No one could save me but you
Strange what desire make foolish people do
I never dreamed that I'd love somebody like you
I never dreamed that I'd lose somebody like you

And I wanna fall in love
(This girl is only gonna break your heart)
And I wanna fall in love
(This girl is only gonna break your heart)
With you
With you

Nobody loves no one
If you like the way the song is edited, help us grow with your like please
More songs of Chris Isaak:
More songs from the category Pop:
Mika - Grace Kelly
Madonna - Beautiful Stranger
Madonna - Don't Tell Me
Bruno Mars and Travie McCoy - Billionaire
Charlie Puth - Attention