Hide Commercials
Did you know? No 'did you know', Add an info for this song
תיסלם - מעשנים ביחד Chords
Ranking: 5.92 Sign Up and Rank!

תיסלם - מעשנים ביחד

Author And Composer: קאב קודה
Category: לא הוגדר
Reset
size
פתיחה:
B C x11

        C7            C 
הצלצול מגיע באמצע המשפט,
         C#9            Ab
המורה נדהמת - כולם בבת אחת
        C7              C
מוציאים סיגריות ורצים מהר
      C#9            Ab
לפינה ההיא שם למטה בחצר
          F 
מעשנים ביחד,
          C
מעשנים ביחד
             F           G 
המורה תביני אין לך מה לומר,
               F             G 
אם לכם מותר אז בטח שגם לי מותר.

אבי הקמצן כבר מחכה בחוץ,
לי גם גפרורים אין - ואני לחוץ
יש מבחן בכימיה - דווקא די קשה,
המורה רותחת כי היא יודעת ש..
מעשנים ביחד,
מעשנים ביחד -
המורה תביני זה כל כך ברור,
אם לכם מותר אז למה, למה לי אסור.

סולו:

e|----------9-----9----------14--------|
B|----9-h12---v12---12s14------14-14---|
G|-12----------------------------------|
D|-------------------------------------|
A|-------------------------------------|
E|-------------------------------------|

e|--------9-----9----------14----------------9-----|
B|--9-h12---v12-----12s14-----14-14----9-h12---v12-|
G|12--------------------------------12-------------|
D|-------------------------------------------------|
A|-------------------------------------------------|
E|-------------------------------------------------|

e|9------------------12-----12----12----14------14------14|
B|--12s14-p12-h14-14-----14----14----16-----16------16----|
G|--------------------------------------------------------|
D|--------------------------------------------------------|
A|--------------------------------------------------------|
E|--------------------------------------------------------|

למהל שלנו זה עוד לא קרה,
הוא רוטט מזעם, הוא כועס נורא -
המורה לכימיה תועמד לדין,
הוא תפס אותה עם כל התלמידים
מעשנים ביחד,
מעשנים ביחד -
למורה לכימיה, זה כולם יודעים,
לא היתה ברירה כי לא היו לה גפרורים.
If you like the way the song is edited, help us grow with your like please
More songs of תיסלם:
More songs from the category לא הוגדר:
חמי רודנר - החום שאני צמא לו כל כך
אלג'יר - דבר אלי
אייל גולן - חזק יותר
ברי סחרוף - מנהרת הזמן
גידי גוב - הליצן העצוב