Hide Commercials
Did you know?
No 'did you know', Add an info for this song
Jimi Hendrix - Purple Haze Chords
Ranking: 6.02 Sign Up and Rank!

Jimi Hendrix - Purple Haze



Videos:












E7#9: 076780

Intro:

e|------------------------------------------|
B|---------------------------------8--------|
G|-------------------------------7----------|
D|-8--8--8--8--8--8--8--8----8s9-----~7\----|
A|-7--7--7--7--7--7--7--7-------------------|
E|-0--0--0--0--0--0--0--0-------------------|

e|------------------------------------|
B|---------------------------8--------|
G|-------------------------7----------|
D|---4s5---------------8s9-----~7s----|
A|-------5---5s7--10\-----------------|
E|---------0--------------------------|

e|------------------------------------------------|
B|------------------------------------------------|
G|------------------------------------------------|
D|--4s5--------------------5-7-7b9-~5---5---------|
A|------5---5s7--10s-----7----------------0-------|
E|--------0---------------------------------0-~3--|

e|------------------------------------------------|
B|--------------------------------------------12\-|
G|--------------------------------------------12\-|
D|-----------5-7b9--5h7~--5--------12-12-~14------|
A|-10s--5--7----------------5-7s14------------12\-|
E|------------------------------------------------|

Bridge:
E7#9 G A x2

E7#9            G          A E7#9
purple haze all in my brain      
E7#9                     G            A  E7#9
lately things just don't seem the same       
                   G              A E7#9 
actin' funny but i don't know why        
E7#9                          
s'cuse me while i kiss the sky

Bridge:

e|----------------------------------|
B|----------------------8---------8-|
G|--------------------7---------7---|
D|-9s11--9---7----7s9-------7s9-----|
A|-7s9---7---5----------------------|
E|----------------------------------|

E7#9        G          A E7#9
purple haze all around       
E7#9                     G          A  E7#9
don't know if i'm comin' up or down        
E7#9          G         A
am i happy or in misery  
   E7#9                                   
whatever it is that girl put a spell on me

Repeat bridge

   A                             B              
e|---------------------------------------14s15-|
B|--------12s14---------12s14---------12-------|
G|------9-------------9---------------12-------|
D|-9h11----------9h11-----------12s14----------|
A|---------------------------------------------|
E|---------------------------------------------|

                      D                        
e|----------14s15--12-------------------------|
B|-------12--------------------15----------15-|
G|-------12-----------14b16b16----14b16b16----|
D|-12s14--------------------------------------|
A|--------------------------------------------|
E|--------------------------------------------|

                   E5                    
e|--------------------------------------|
B|--------------12h14-12h14-12h14-12----|
G|-14b16b16\-------------------------14-|
D|--------------------------------------|
A|--------------------------------------|
E|--------------------------------------|

                F#5     D                 E5 
e|------------------------------------------|
B|------------------------------------------|
G|-14h16p14-13h14--14----------12h14-12-~12-|
D|--------------------16----14--------------|
A|------------------------------------------|
E|------------------------------------------|

   E5                F#5                
e|-------------------------------------|
B|-------------------------------------|
G|-11h12p11-11-------------------------|
D|-------------14-12----12-14-12-11-12-|
A|-------------------------------------|
E|-------------------------------------|

  D          E5                         
e|-------------------------------------|
B|-------------------------------------|
G|-------9-11----9h11p9-----9--9h11----|
D|--9s11----------------12----------12-|
A|-------------------------------------|
E|-------------------------------------|

  F#5            D        E5                          
e|--------------------------------14--12h14p12----12-|
B|---------------------------------------------15----|
G|11--11---11----------9--11-12----------------------|
D|--12--12---~12----12-------------------------------|
A|---------------------------------------------------|
E|---------------------------------------------------|

        F#5                   D                E5
e|----------------------------------------------|
B|-14h15p14-14--12h14p12------------15-------15-|
G|------------------------14--14h16----14h16----|
D|----------------------------------------------|
A|----------------------------------------------|
E|----------------------------------------------|

Repeat Intro

E7#9                 G          A E7#9
yeah purple haze all in my eyes       
E7#9               G            A E7#9
don't know if it's day or night       
E7#9               G             A E7#9
you got me blowin' blowin' my mind     
E7#9                                  
is it tomorrow or just the end of time

Repeat Bridge

 A   B         D5       E
ooh,   help me, ahh yeah 

Bridge:
E F#5 D5 x6

purple hazeyeah oh no no oh help me 
tell me baby tell me i cant' go on loke this
your're makin' me blow my mind mama oh no
purple haze no no it's painful baby
If you like the way the song is edited, help us grow with your like please


More songs of Jimi Hendrix:
Hey Joe Fire Angel
More songs from the category Rock:
Arctic Monkeys - Snap Out Of It
Reamomn - Supergirl
Pearl Jam - Yellow Ledbetter
Fun. - We Are Young
The Beatles - Love me do