My Songs
PubilcPrivate
My Songs
Full Access
Hide Ads
The Beatles - Let It Be - Learn the Guitar Solo
Scroll There
Scroll There
Scroll There
Scroll There
Scroll There
Scroll There
Scroll There
Scroll There
Scroll There
Scroll There

Let It Be - The Guitar Solo:


       C             G          Am      
e|-------------------------------------|
B|-------------------------------------|
G|-------------------------------------|
D|-----------------------------------5-|
A|-----3--3-5b7b5-3--5-5-----3s5-5s7---|
E|-3h5-------------------3h5-----------|

           F   C                 G              
e|-----------------------------------5s3-------|
B|------------------------------5--8-----5p3---|
G|----------------------------5--------------5-|
D|-7p5-------------5-5---5--7------------------|
A|-----7p5-3---5s7-----7-----------------------|
E|---------------------------------------------|

    F              C                     G  
e|-----------------------------------------|
B|---------------------------------------5-|
G|--7p5------------------------------------|
D|------7-5------------------------5s7-5---|
A|------------7p5--3---------5s7-3---------|
E|-----------------------3h5---------------|

                 Am              F    
e|-----------------------------------|
B|------------------8--10p8----------|
G|-7-5-7--------7s9----------9p7-5---|
D|-------7-5h7-----------------------|
A|-----------------------------------|
E|-----------------------------------|

         C             G           
e|---------8----------10b11-10-~8-|
B|------------10p8----------------|
G|-----5s9---------9--------------|
D|-5h7----------------------------|
A|--------------------------------|
E|--------------------------------|

      F                   C  
e|--------------------------|
B|-10-8----10p8-------------|
G|-------9-------9p7--5h7-5-|
D|--------------------------|
A|--------------------------|
E|--------------------------|

Guitar Solo - Part 1:


       C             G    
e|-----------------------|
B|-----------------------|
G|-----------------------|
D|-----------------------|
A|-----3--3-5b7b5-3--5-5-|
E|-3h5-------------------|

Guitar Solo - Part 2:


  G         Am            F  
e|--------------------------|
B|--------------------------|
G|--------------------------|
D|-------------5--7p5-------|
A|-----3s5-5s7--------7p5-3-|
E|-3h5----------------------|

Guitar Solo - Part 3:


     C              G               
e|-----------------------5s3-------|
B|------------------5--8-----5p3---|
G|----------------5--------------5-|
D|-----5-5---5--7------------------|
A|-5s7-----7-----------------------|
E|---------------------------------|

Guitar Solo - Part 4:


   F              C 
e|-----------------|
B|-----------------|
G|-7p5-------------|
D|-----7-5---------|
A|----------7p5--3-|
E|-----------------|

Guitar Solo - Part 5:


         C         G           
e|----------------------------|
B|-----------------5----------|
G|--------------------7-5-7---|
D|-----------5s7-5----------7-|
A|-----5s7-3------------------|
E|-3h5------------------------|

Guitar Solo - Part 6:


         Am              F   
e|--------------------------|
B|----------8--10p8---------|
G|------7s9----------9p7-5--|
D|-5h7----------------------|
A|--------------------------|
E|--------------------------|

Guitar Solo - Part 7:


   F     C            
e|---------8---------|
B|------------10p8---|
G|-----5s9---------9-|
D|-5h7---------------|
A|-------------------|
E|-------------------|

Guitar Solo - Part 8:


      G            F   
e|-10b11-10-~8--------|
B|--------------10-8--|
G|--------------------|
D|--------------------|
A|--------------------|
E|--------------------|

Guitar Solo - Part 9:


   F                C  
e|--------------------|
B|---10p8-------------|
G|-9-------9p7--5h7-5-|
D|--------------------|
A|--------------------|
E|--------------------|