My Songs
My Songs
Hide Commercials
Did you know? No 'did you know', Add an info for this song
Guns N' Roses - Knocking On Heaven's Door Chords
Ranking: 5.92 Sign Up and Rank!

Guns N' Roses - Knocking On Heaven's Door



Videos:



Reset
size
Intro:

e|-2--2------------------------------|
B|-2----2---2-------6-4--------------|
G|-3------3-------6-----6---6--------|
D|-4------------6---------6----------|
A|-4----------4----------------5s6---|
E|-2---------------------------6s7-7-|

e|--------------------------------|
B|--------------------------------|
G|----------8---------------------|
D|-9----------9----9--------------|
A|---9----------9----9---5s6----6-|
E|-----11----------------6s7--7---|

e|----2--------------------------|
B|------2---2----------6-4-------|
G|--------3----------6-----6---6-|
D|-----------------6---------6---|
A|---------------4---------------|
E|-2-----------------------------|

e|------------------------------|
B|------------------------------|
G|------------------------------|
D|-------9--------9------9------|
A|---6-9---9-6------9------9----|
E|-7-----------11-----11-----11-|

Bridge:
F# C# B

F#    C#   B   F#
oh... yea....

F#   C#                   Abm   F#
Mama Take this badge from me      
F#      C#        B      F#
I can't use it anymore     
F#           C#              Abm   F#
It's Getting dark to dark to see     
F#              C#     
Feels like I'm knocking
           B     F#
on heavens door    

F#           C#                B   
Knock Knock Knockin on Heavens door
                  F# 
hey  hey  hey hey hey
F#          C#     
Knock Knock Knockin
           B     F#   
on Heavens door  oh...
F#           C#                B   
Knock Knock Knockin on Heavens door
             F# 
oh... oh... yeah
F#           C#                B   
Knock Knock Knockin on Heavens door
         F#  
hey  hey yeah

Solo1:
F# C# B x12

F#   C#                 Abm     F#
Mama put my guns in the ground    
F#      C#            B     F#
I can't shoot them anymore    
F#              C#   
That long black cloud
          Abm   F#
is coming down    
F#              C#     
Feels like I'm knocking
           B   
on heavens door

F#           C#                B   
Knock Knock Knockin on Heavens door
                  F# 
hey  hey  hey hey hey
F#          C#     
Knock Knock Knockin
           B     F#   
on Heavens door  oh...
F#           C#                B   
Knock Knock Knockin on Heavens door
             F# 
oh... oh... yeah
F#           C#                B   
Knock Knock Knockin on Heavens door
         F#  
hey  hey yeah

Solo 2:

    B                   F#       C#  
e|----------9-14-13--13b14-13b14-13-|
B|-12----12-------------------------|
G|----11----------------------------|
D|----------------------------------|
A|----------------------------------|
E|----------------------------------|

                 B           
e|-13b14b13p11--13p11-------|
B|--------------------14b16~|
G|--------------------------|
D|--------------------------|
A|--------------------------|
E|--------------------------|

                               F#    
e|-14------14-----------------------|
B|---14b16----14b16b14-12-14--------|
G|----------------------------13b15-|
D|----------------------------------|
A|----------------------------------|
E|----------------------------------|

                      C#              
e|-14--------------------14----14----|
B|----14-14-----------------14-14----|
G|-------13b15b13-11-13--------13b15-|
D|-----------------------------------|
A|-----------------------------------|
E|-----------------------------------|

             B                       
e|14------------------14----16b18b16|
B|14---------------14----14---------|
G|13b15b13-11~--15------------------|
D|----------------------------------|
A|----------------------------------|
E|----------------------------------|

                  F#               
e|-14h16p14-19-18-19-19b21--19-18-|
B|--------------------------------|
G|--------------------------------|
D|--------------------------------|
A|--------------------------------|
E|--------------------------------|

   C#                    B        
e|-19b21-19-18-19-21b23-21b23-21-|
B|-------------------------------|
G|-------------------------------|
D|-------------------------------|
A|-------------------------------|
E|-------------------------------|

   B                                  
e|---------21------------------------|
B|19h21b23----19b21p19h21b23-19h21p19|
G|-----------------------------------|
D|-----------------------------------|
A|-----------------------------------|
E|-----------------------------------|

     F#       C#             B        
e|-----------------------------------|
B|17b19-17b19-18~~-18b19-16h18p16-16~|
G|-----------------------------------|
D|-----------------------------------|
A|-----------------------------------|
E|-----------------------------------|

                            F#    C#  
e|14----14---------------------------|
B|---16----16p14----14---------------|
G|---------------16-------15b16------|
D|---------------------15-------16-15|
A|-----------------------------------|
E|-----------------------------------|

             B                   F#   
e|-----------------------------------|
B|-----------------------------------|
G|-----------------------------------|
D|15b16--16b15p13-13~---11-----------|
A|-------------------------14p13-----|
E|-------------------------------14~-|

Bridge:
F# C# B x8

F#           C#                B   
Knock Knock Knockin on Heavens door
                  F# 
hey  hey  hey hey hey
F#          C#     
Knock Knock Knockin
           B     F#   
on Heavens door  oh...
F#           C#                B   
Knock Knock Knockin on Heavens door
             F# 
oh... oh... yeah
F#           C#                B   
Knock Knock Knockin on Heavens door
         F#  
hey  hey yeah
F#           C#                B   
Knock Knock Knockin on Heavens door
                  F# 
hey  hey  hey hey hey
F#          C#     
Knock Knock Knockin
           B     F#   
on Heavens door  oh...
F#           C#                B   
Knock Knock Knockin on Heavens door
             F# 
oh... oh... yeah
F#           C#                B   
Knock Knock Knockin oon Heavens door
         F#  
hey  heyy yeah

Ending:
F# F# F# F# x2
If you like the way the song is edited, help us grow with your like please
More songs of Guns N' Roses:
November Rain Don't Cry Patience Sweet Child O' Mine
More songs from the category Rock:
The Cure - Boys Don't Cry
Green day - Time of your life
Rolling Stones - Wild Horses
Coldplay - Magic
The Angelcy - Dreamer