My Songs
My Songs
Hide Ads »
Guns N' Roses - Knocking On Heaven's Door - Learn the Solo on the Guitar
Scroll There

The Guitar Solo



 

Step 1



e||----------9-14-13--13b14-|
B||-12----12----------------|
G||----11-------------------|
D||-------------------------|
A||-------------------------|
E||-------------------------|

Step 2



e|-13b14-13-13b14b13p11-13p11--------|
B|----------------------------14b16~-|
G|-----------------------------------|
D|-----------------------------------|
A|-----------------------------------|
E|-----------------------------------|

Step 3



e|-14------14-----------------------|
B|---14b16----14b16b14-12-14--------|
G|----------------------------13b15-|
D|----------------------------------|
A|----------------------------------|
E|----------------------------------|

Step 4



e|-14--------------------|
B|----14-14--------------|
G|-------13b15b13-11-13--|
D|-----------------------|
A|-----------------------|
E|-----------------------|

e|-14----14----14-----------|
B|----14-14----14-----------|
G|-------13b15-13b15b13-11~-|
D|--------------------------|
A|--------------------------|
E|--------------------------|

Step 5



e|-------14----16b18b16-14h16p14-19-18-19-19b21-|
B|----14----14----------------------------------|
G|-15-------------------------------------------|
D|----------------------------------------------|
A|----------------------------------------------|
E|----------------------------------------------|

Step 6



e|-19-18-19b21-19-18-19-21b23-21b23-21-|
B|-------------------------------------|
G|-------------------------------------|
D|-------------------------------------|
A|-------------------------------------|
E|-------------------------------------|

e|----------21-------------------------|
B|-19h21b23----19b21p19h21b23-19h21p19-|
G|-------------------------------------|
D|-------------------------------------|
A|-------------------------------------|
E|-------------------------------------|

Step 7



e|------------------------------------|
B|-17b19-17b19-18~~-18b19-16h18p16-16~|
G|------------------------------------|
D|------------------------------------|
A|------------------------------------|
E|------------------------------------|

Step 8



e|-14----14----------------------------------|
B|----16----16p14----14----------------------|
G|----------------16-------15b16-------------|
D|----------------------15-------16-15-15b16-|
A|-------------------------------------------|
E|-------------------------------------------|

e|----------------------------||
B|----------------------------||
G|----------------------------||
D|-16b15p13-13---11-----------||
A|------------------14p13-----||
E|------------------------14~-||