My Songs
Hide Ads »
Jimi Hendrix - Hey Joe - Learn Guitar Intro
Scroll There
Scroll There
Scroll There
Scroll There
Scroll There
Scroll There
Scroll There

Guitar Intro



E|-0-0-0-----------0--|
B|-3s5-3-----------0--|
G|-------2p0----------|
D|-----------2-----2--|
A|---------------2----|
E|-------------0------|

E|-----------------------------------------|
B|-----------------------------------------|
G|-----------------------------------------|
D|---2s5---5---4--2---2--------------------|
A|---2s5---5---4--2---2--------5-----5-----|
E|-0-----0---0------0---0--5h7---5h7---7s0-|

Learn Guitar Intro - Part 1



E|-0-0-0-------|
B|-3s5-3-------|
G|-------2p0---|
D|-----------2-|
A|-------------|
E|-------------|

Learn Guitar Intro - Part 2



E|-----0------------------|
B|-----0------------------|
G|------------------------|
D|-----2---2s5---5---4--2-|
A|---2-----2s5---5---4--2-|
E|-0-----0-----0---0------|

Learn Guitar Intro - Part 3



E|-----------------|
B|-----------------|
G|-----------------|
D|-----------------|
A|-----5-----5-----|
E|-5h7---5h7---7s0-|

Learn Guitar Intro - Part 4



C G D A E E

Learn Guitar Bridge 1



E|-----------------|
B|-----------------|
G|-----------------|
D|-----------------|
A|----5----5--7~---|
E|-/7----7---------|

Learn Guitar Bridge 2



E|-----------------|
B|-----------------|
G|-----------------|
D|---------5-------|
A|----5-------7~---|
E|-/7----7---------|