Hide Commercials
Did you know? No 'did you know', Add an info for this song
אהוד בנאי - מלנכולי Chords
Ranking: 6.04 Sign Up and Rank!

אהוד בנאי - מלנכולי

Author And Composer: אהוד בנאי
Category: לא הוגדר
Reset
size
פתיחה:

e|----------------------------------------|--|
B|----------------------------------------|--|
G|--0---0---0---0----0---0-----0---0---0--|--|
D|----4-------5--------4------------------|--|
A|2-------3--------2-----------------0---2|x2|
E|---------------------------2---3--------|--|

e|---------|--|--------|--|-----|
B|---------|--|--------|--|-----|
G|---0---0-|--|----0---|--|-----|
D|-----4---|--|------2-|--|-----|
A|-2-------|x4|--3-----|x4|---x2|
E|---------|--|--------|--|-----|

              C                Bm 
המסע אליו יצאתי התארך אל תוך הלילה
            C             Bm 
לבד בצד הדרך בנופים לא מוכרים
             C                Bm   
פרצופים זרים בתים דולקים בתוך החושך
          C            Bm   
מדורה של נוודים רכבת של חצות

פזמון x2:

                  Bm  
ומלנכולי היתה מנת חלקי
Bm                             C    
מדי ערב היא חיכתה לי ברציף הדייגים  

מעבר:

   Bm       C                      Bm      
e|----------------------------------------|
B|-~7----7s10--8--7-7---------------------|
G|---------------------9-9-9--9s12-11--11-|
D|----------------------------------------|
A|----------------------------------------|
E|----------------------------------------|

       C               Bm  Bm  C         
e|--------------------------------------|
B|--------------------------------------|
G|--11--9--9s7--7s5--5s4-4--9s14--14s12-|
D|--------------------------------------|
A|--------------------------------------|
E|--------------------------------------|

        Bm    C                Bm 
e|-------------------------------|
B|-------------------------------|
G|-12---11---11s9--9s7--7s5--5s4-|
D|-------------------------------|
A|-------------------------------|
E|-------------------------------|

              C                 Bm    
בכל עיר נמל מוארת או בכפר יושב על המים
        C              Bm 
בשעות מעורפלות שנמוגו כעשן
           C             Bm    
לא עזבה אותי היתה לאורך כל הדרך
         C             Bm 
ילדה של נוודים בצל הסמטאות

פזמון

מעבר

          C               Bm  
הצללית שלה חומקת מרחפת על המים
        C              Bm 
בשעות מעורפלות שנמוגו כעשן

פזמון
If you like the way the song is edited, help us grow with your like please
More songs of אהוד בנאי:
דם
More songs from the category לא הוגדר:
חיים משה וליאור נרקיס - אותך לצידי
שילה פרבר - טוב תשלח אלי את המטומטמת
שולה חן - פתאום היה לי טוב
יזהר אשדות - הדיבוק
עומר אדם - בסוף הכל חולף