My Songs
Hide Ads »
Aerosmith - Walk This Way - Learn the Guitar Solo and Verse
Scroll There
Scroll There
Scroll There

Guitar Solo


e|-11b12---8h11p8----8-------------|
B|----------------11----11b13~-----|
G|---------------------------------|
D|---------------------------------|
A|---------------------------------|
E|---------------------------------|

e|-8-------------------------------------------|
B|---11-8-------------------------------10b11~-|
G|--------11-10-8-10-8-10-10s12-8b9------------|
D|----------------------------------10---------|
A|---------------------------------------------|
E|---------------------------------------------|

e|----------------------------------------------|
B|--8----8--------------------------------11b13-|
G|----10---11-10-8-10-8-10-8-11-10-8-10-8-------|
D|----------------------------------------------|
A|----------------------------------------------|
E|----------------------------------------------|

Learn Guitar Solo


e|-11b12---8h11p8----8-------------|
B|----------------11----11b13~-----|
G|---------------------------------|
D|---------------------------------|
A|---------------------------------|
E|---------------------------------|

e|-8-------------------------------------------|
B|---11-8-------------------------------10b11~-|
G|--------11-10-8-10-8-10-10s12-8b9------------|
D|----------------------------------10---------|
A|---------------------------------------------|
E|---------------------------------------------|

e|----------------------------------------------|
B|--8----8--------------------------------11b13-|
G|----10---11-10-8-10-8-10-8-11-10-8-10-8-------|
D|----------------------------------------------|
A|----------------------------------------------|
E|----------------------------------------------|

Intro & Verse 1


e|----------------------------|
B|----------------------------|
G|----------------------------|
D|----------------------------|
A|-------7---------7----------|
E|-5-6-7-----5-6-7----0--x-x--|

e|------------------------|
B|------------------------|
G|------------------------|
D|------------------------|
A|--------7---------7---7-|
E|-5-6-7-----5-6-7----5---|

e|------------------------|
B|------------------------|
G|------------------------|
D|------------------------|
A|-------7---------7------|
E|-5-6-7-----5-6-7----0---|

e|---------------------------------|
B|---------------------------------|
G|---------------------------------|
D|---------------------------------|
A|--------7---------7---7---8-9-10-|
E|-5-6-7-----5-6-7------5---6-7-8--|

Verse 2


e|--------------------------------------|
B|--------------------------------------|
G|--------------------------------------|
D|---------------7-----10-------8-7-----|
A|-------10---------------10-10-----10--|
E|-8-8-8-------8-----8------------------|