Hide Commercials
Did you know?
No 'did you know', Add an info for this song
AC/DC - Dog Eat Dog Chords
Ranking: 5.86 Sign Up and Rank!

AC/DC - Dog Eat Dog



Category: Undefined
Pattern 1:

   E5  A5  D5    Fig.1      
e|------------|------------|
B|---------3--|------------|
G|-----2---2--|------------|
D|-2---2---0--|------------|
A|-2---0------|------------|
E|-0----------|------------|

Pattern 2:

   E5   A5    D5          D5 A5  
e|---------------|--------------|
B|------------3--|--------3-----|
G|------2-----2--|--------2--2--|
D|-2----2-----0--|--------0--2--|
A|-2----0-0-0----|-----------0--|
E|-0--0----------|0-0-0-0-------|

Pattern 3:

   A5       D5       G5                       D5 
e|-------------------3--------------------------|
B|----------3--------3--------------------3---3-|
G|-2--------2--------0--------------------0---2-|
D|-2--------0--------0----------------0---0---0-|
A|-0--0--0-----0--0-----------------------------|
E|-------------------3----3---3---3---3---3-----|

Pattern 2                 E5   A5 
Well it`s a dog eat dog,          
  D5     A5  E5 A5 D5
eat cat too.         
         A5  E5  A5  D5
So fish eat frog,      
  A5  E5   A5  D5     A5
I eat    you.           
Pattern 3                         
Business Man, when you make a deal
Pattern 3
Do you know you can trust?
Pattern 2             
Do sign your life away
Pattern 2
Do you write your name in dust?  Hey,Hey,Hey!

   B5                             A5           
e|--------------|---------------|-------------|
b|--------------|---------------|-------------|
g|-4--4-4--4-4--|---------------|-2--2-2--2-2-|
D|-4--4-4--4-4--|---------------|-2--2-2--2-2-|
A|-2--2-2--2-2--|---------------|-0--0-0--0-0-|
E|--------------|---------------|-------------|

Every dog Have his day

                E5 A5 D5          E5 A5 D5
It`s a dog eat dog       Dog eat dog      

Solo:

     A5                                                     
e|---------------------------------------------------------|
b|----17----17s----17----17----17s----17----17----17----17-|
g|/18----18----/18----18----18----/18----18----18----18----|
D|---------------------------------------------------------|
A|---------------------------------------------------------|
E|---------------------------------------------------------|

    D5               A5                                      
e|----------------------------------------------------------|
b|-------19----19----17----17----17----17-------17----17----|
g|-18/19----19----19----18----18----18----18/18----18----18s|
D|----------------------------------------------------------|
A|----------------------------------------------------------|
E|----------------------------------------------------------|

                                              D5            
e|---------------------------------------------------------|
b|-----17----------17----17----17----17----17----19--------|
g|-/18----18-18-18---/18----18----18----18---/19----19-19--|
D|---------------------------------------------------------|
A|---------------------------------------------------------|
E|---------------------------------------------------------|

   A5                  E5                                    
e|----------------------------------------------------------|
b|----17----17----------------------------------------------|
g|-18----18----18s--------12----12---------12----12-12s-----|
D|------------------14-13----13----13s-/13----13--------13--|
A|----------------------------------------------------------|
E|----------------------------------------------------------|

                  A5         E5                E5            
e|-----------------------------------12---------------------|
b|12-------12--------14--------12-----------12---------12---|
g|---13-13----13-/14----14--13----13-----13----13s-/13----13|
D|----------------------------------------------------------|
A|----------------------------------------------------------|
E|----------------------------------------------------------|

           A5                                  A5     E5    
e|---------------------------------------------------------|
b|---------12-12--12------12----12----12----12----14----14-|
g|--13s-13----13--13--/13----13----13----13----14----14----|
D|---------------------------------------------------------|
A|---------------------------------------------------------|
E|---------------------------------------------------------|

                        A5                                  
e|---------------------------------------------------------|
b|---12----12----12-------17----17-17s--------17----17-----|
g|13----13----13----13-18----18----18s-----18----18----18s-|
D|---------------------19----19----19s-/19-----------------|
A|---------------------------------------------------------|
E|---------------------------------------------------------|

                             D5           A5                
e|---------------------------------------------------------|
b|------17----17----17----17----19----19----17----17----17-|
g|17/18----18----18----18----18----19----18----18----18----|
D|---------------19----19----19----------19----------------|
A|---------------------------------------------------------|
E|---------------------------------------------------------|

  A5                                                        
e|---------------------------------------------------------|
b|---------17----17----------17----17----17----17----17----|
g|18-17-18----18----18s17-18----18----18----18----18----18-|
D|---------------------------------------------------------|
A|---------------------------------------------------------|
E|---------------------------------------------------------|

         D5          A5             E5 A5 D5  E5 A5 D5    
e|---------------------------------|---------|-----------|
b|17----17----19-------17----17----|---------|-----------|
g|---18----19----19-18----18-------|---------|-----------|
D|------------------------------19s|---------|-----------|
A|---------------------------------|------3b5|------3b5--|
E|---------------------------------|---------|-----------|
If you like the way the song is edited, help us grow with your like please
More songs of AC/DC:
It's A Long Way Ain't Nosie Pollution Big Balls You Shook Me All Night Long Cover You In Oil Rock and Roll Damnation Dirty Deeds Done Dirt Cheap Girls Got Rhythm
More songs from the category Undefined:
Led Zeppelin - No Quarter
Linkin Park - Breaking The Habit
Bon Jovi - Always
Leonard Cohen - You Know Who I Am
Bob Dylan - Don't Think Twice