Hide Commercials
Did you know?
No 'did you know', Add an info for this song
ABBA - The Visitors Chords
Ranking: 5.94 Sign Up and Rank!

ABBA - The Visitors



Category: Undefined
A                       D   
I  hear  the  doorbell  ring
                    A                
and  suddenly  the  panic  takes  me 
                D        
The  sound  so  ominously
                       A      
tearing  through  the  silence
                 Am                           E  
I  cannot  move  I'm  standing  numb  and  frozen
                                       
Among  the  things  I  love  so  dearly
     D       A
The  books    
                          G              A       
The  paintings  and  the  furniture...   help  me

Chorus:

A                         
Now  I  hear  them  moving
G        D       A     
muffled  noises  coming
                           
Through  the  door  I  feel
     G             D  A
I'm  crackin  up.      
A                      
Voices  growing  louder
 G            D           A
irritaion  building  and   
                           G            D   A
I'm  close  to  fainting  cracking  up.      

Riff after that chorus:

E|--------------12---15---15---14---12---15---15-|
B|-14---14---15----------------------------------|
G|-----------------------------------------------|
D|-----------------------------------------------|
A|-----------------------------------------------|
E|-----------------------------------------------|

E|--14--10--9--10--12---------------12--15-|
B|---------------------14--14---15---------|
G|-----------------------------------------|
D|-----------------------------------------|
A|-----------------------------------------|
E|-----------------------------------------|

E|-15--14--12----19--19--17--15--14--15--17-|
B|------------------------------------------|
G|------------------------------------------|
D|------------------------------------------|
A|------------------------------------------|
E|------------------------------------------|

They  must  know  by  now  I'm  in  here  tremblin
In  a  terror  evergrowing,  cracking  up.
My  whole  world  is  falling,  going  crazy
There's  no  escaping  now  I'm  cracking  up.
If you like the way the song is edited, help us grow with your like please
More songs of ABBA:
Mama-mia Gimme Gimme Gimme Super Trouper The winner takes it all Head Over Heels When I Kissed The Teacher Money Money Money Dancing Queen The day before you came Take A Chance On Me
More songs from the category Undefined:
Led Zeppelin - No Quarter
Bob Dylan - Forever Young
Led Zeppelin - Houses Of The Holy
Coldplay - Viva La Vida
Dido - White Flag