Hide Commercials
Did you know? No 'did you know', Add an info for this song
שייגעצ - את יודעת Chords
Ranking: 6.04 Sign Up and Rank!

שייגעצ - את יודעת

Author And Composer: יובל מנדלסון
Category: לא הוגדר
Reset
size
פתיחה:

    A         F#m         F          E        
e||------------------------------------------|
B||------------------------------------------|
G||----------3s4-----------------------------|
D||-7--6----------6-------7--7-7b9b7-6-----6-|
A||-------7----------7------------------7----|
E||------------------------------------------|

    A         F#m         F        E  
e|----------------------------------||
B|--------------------------------5-||
G|----------3s4-------------4--5----||
D|-7--6----------6-------7----------||
A|------7-----------7---------------||
E|----------------------------------||

     F#m        A
את יודעת אני יודע
     E       F   
אז למה כל המשחקים
     F#m        A
את שומעת אני שומע
D      E         F 
אבל אנחנו שני חרשים
  E   D   B  D  B    D  B  
החיים מסריחים חבלים שקושרים

        F#m        A
את חושבת אני חושב גם
     E        F
והזמן רק מתבזבז
    F#m              A  
רוצה להוריד לך את החולצה
D    E         F 
אבל אף פעם לא מעז
  E  D   B   D  B     D   B  
החיים  הם ריקים הצבעים דהויים

פזמון:

F#m        A
אם יש לך זמן
  E       F   
צלצלי אלי הערב
E  F     F#m   A    
כי אני מפחד להתקשר
   E       F     F#m        A 
ואם יש לך כוח תתקרבי אלי בלילה
E  F      F#m      A    
כי אני כבר עייף מלהתרחק

מעבר כמו הפתיחה

        F#m        A
את כועסת אני כועס גם
       E       F
ושכחתי כבר על מה
        F#m        A  
יושב בחדר מדליק סיגריה
D     E        F
מקלל את הבת זונה
 E   D    B    D  B    D   B  
אהבה    משונה  פעם טוב ופעם רע

פזמון x2
If you like the way the song is edited, help us grow with your like please
More songs of שייגעצ:
More songs from the category לא הוגדר:
אריק איינשטיין ושלום חנוך - אישה מבוגרת
Ed Sheeran - You need me I dont need you
מארינה מקסימיליאן - אפס סובלנות
דיויד ברוזה - מרפסות תל אביב
טיפקס - למה הלכת ממני