Hide Commercials
Did you know? No 'did you know', Add an info for this song
שי גבסו - המילים החסרות Chords
Ranking: 5.96 Sign Up and Rank!

שי גבסו - המילים החסרות

Author And Composer: שי גבסו
Reset
size
פתיחה:

e|--------------------------|
B|--------------------------|
G|---------------------2-2--|
D|---5-5---5-5---5----------|
A|-------------5---5-5------|
E|-3------------------------|

e|-----------------------------------------------|
B|-----------------------------------------------|
G|-2-2----2---2-----0---0-0---0---0-----0------2-|
D|----------------2-------------------2----------|
A|-----5---5----3-----------3---3---3-----5-5----|
E|-----------------------------------------------|

   Am   Em
אני ששתקתי
 Am      Em  
לא אמרתי מילה
      Am           Em 
משלים את המילים החסרות
 Am       Em 
מילה אחר מילה
 Bm    Em 
חשבתי אחרת
 Bm      Em 
לכאן או לכאן
 Bm    Em  
מילה שנשמרת
 Em             Am  
תכתב באותו משפט עימן

פזמון:

D        C      D         G 
ואני רוצה ללכת למקום אחר    
 G    Cmaj7  D    G 
רוצה ללכת, רוצה לדבר
  D      Am  
ולשיר את השיר
Am     Em      B7  B  
שמסמל את הפרידה הזו   
 Em      B    
עד שהדמעה תעלם

  Am       Em 
עכשיו הכל אחרת
 Am       Em  
עכשיו הכל שונה
         Am        Em 
משלים עוד מילה שמתחרזת
 Am     Em 
הדף כבר מלא
  Bm     Em
מנסה להשלים
 Bm    Em    
את אותו המשפט
 Bm  Em  
שנכתב לאט
 Em        Am
כמו צעד בשחמט

פזמון

מעבר: x4

       C     D      Bm       C       
e|-------------------------5--------|
B|-5-7-8---8-7----5-5h7------8--7-5-|
G|----------------------------------|
D|----------------------------------|
A|----------------------------------|
E|----------------------------------|

פזמון
If you like the way the song is edited, help us grow with your like please
More songs of שי גבסו:
More songs from the category רוק:
אבי גרייניק - יש מי שאוהב
אהוד בנאי - אל תפחד
אהוד בנאי - היום
יהורם גאון - אל תשטה באהבה
יהודה פוליקר - מה יהיה יהיה