Hide Commercials
Did you know?
No 'did you know', Add an info for this song
מופע הארנבות של ד"ר קספר - מתוק יום הדבש Chords
Ranking: 5.92 Sign Up and Rank!
פתיחה: x4

   Am         Am         Bb        Dm      F Am
e||-----5----------5-------------------------||
B||-5-6---5----5-6---5----8-6-5-6---8-6-5-6--||
G||------------------------------------------||
D||------------------------------------------||
A||------------------------------------------||
E||------------------------------------------||

                   Am
יום נשפך נופל כמו דבש
 F    Dm         Bb  
נפגש אצלך ונתחיל מחדש
                  Am
שוב שואל זה יום גדול
 F    Dm            Bb 
לאבד שליטה או לשכוח הכל

Dm         C/C#   C      F    Dm
כאן איתך עצב מר מטפטף על דף נייר
         C/C#  C          F   
לידך נהיה לי חם ובסוף אני נרדם

פזמון:

   Am         Am         Bb        Dm      F Am
e||-----5----------5-------------------------||
B||-5-6---5----5-6---5----8-6-5-6---8-6-5-6--||
G||------------------------------------------||
D||------------------------------------------||
A||------------------------------------------||
E||------------------------------------------||

Am F   Dm  Bb
מתוק יום הדבש

              Am
היא כלואה בתומתה
 F     Dm         Bb 
מנפנפת לה בשולי שמלתה
                 Am  
זה לא זמן לחשוב לשאול
 F   Dm         Bb  
מאבד שליטה ושוכח הכל

Dm         C/C#   C      F    Dm 
כאן הדבר לא נגמר מטפטף על דף נייר
         C/C#  C          F   
לידך נהיה לי חם ובסוף אני נרדם

פזמון

כאן הדבש לא נגמר...

פזמון
If you like the way the song is edited, help us grow with your like please
More songs of מופע הארנבות של ד"ר קספר:
More songs from the category לא הוגדר:
מושיק עפיה - שובר שתיקה
זוהר ארגוב - מלאך ושטן
אבי טולדנו - תרקדי את הלילה
בן ארצי - חיים משל עצמי
רונה קינן - Train