My Songs
My Songs
Hide Ads
Did you know? No 'did you know', Add an info for this song
ליאור ייני - בואי לאילת Chords
Ranking: 5.84 Sign Up and Rank!

ליאור ייני - בואי לאילת

Author: ירון לונדון
Composer: נורית הירש
Song Editor: TAB4U Staff
Category: שירים מוכרים ג'אז
Strumming:
To view Strummings you must be a logged in userSign up \ Login
Reset
size
G6/9 - **5455  
Am6 - 7575**
A4/7 - 555685
A*1 - *0*668
A*2 - *0*666

A7 G6/9            Dm
בואי נמלט מן האספלט
 Gm      Am6    D7
ומן הערים המקומטות
Bbmaj7    Dm      A4/7  Gm 
בואי נמלט אל הלגונות השקטות
A*1 A*2 Dm    A4     Eb7
בואי לאילת לאילת

בבירת השמש
מנומש בנמש
למול הרקיעים נחטוף תנומה
והרוח שיישוב
ישיאנו לא לחשוב
על מאומה
עצומי עיניים
נמלט בשניים
למים אל גני האלמוגים
בין כחול לבין ירוק
את בגדי הים נזרוק
נשליך אותם אל הגלים

בואי נמלט מן האספלט...

בשיער פרוע
שפרע הרוח
אתה שרוע לי כמו לטאה
כמו דולפין אשר נמלט
מעמקי מפרץ אילת
כמו הפתעה
תנו לי רק חודשיים
על המגלשיים
ועל גלי המים לא אמעד
בין ירוק ובין כחול
בן אדם אני יכול
אני יכול לחיות לעד

בואי נמלט מן האספלט...

בואי נגלה את
מחוזות הפלא
ואת הקסם של המפרצים
כמו קולומבוס כך פתאום
בספינה קלת חרטום
של מפרשים
אם הפעם באת
שוב תשוב אילתה
כי בכשפים היא אחוזה העיר
ומכושף הוא המחבוא
ואתה אליו תבוא
תבוא אליו יותר צעיר

בואי נמלט מן האספלט...


השיר בפריטה:

פתיחה:

e||--5-----5-------|----------------|--5-----5-------|8---8-------6---|
B||--5-----5-------|6---6-----------|--5-----5-------|6---6-------6---|
G||--7-----7-------|6---6-----------|--7-----7-------|6---6-----------|
D||0-----0---------|5---5-----------|0-----0---------|----------------|
A||----------------|6---6-----------|----------------|6---6-----------|
E||----------------|----------------|----------------|----------------|

המשך:

e||1-----1-1-1---1-|1---1---1---1---|5-5-------------|----------------|
B||3-----3-3-3---3-|3---3---3---3---|5-5-5-5-5---5-2-|--2---2-2-2-2---|
G||2-----2-2-2---2-|2---2---2---2---|4-4-4-4-4---4-0-|--0---0-0-0-0---|
D||0---------------|0---------------|5---5-5-5---5-2-|--2---2-2-2-2---|
A||----------------|----------------|--------------0-|--0---0-0-0-0---|
E||----------------|----------------|----------------|----------------|

e||2---2---2-2-----|5---5---5-5---5-|3---3---5---5-3-|--5---3-5-5-3---|
B||1---1---1-1-----|7---7---7-7---7-|3---3---3---3-3-|--3---3-3-3-3---|
G||2---2---2-2-----|5---5---5-5---5-|3---3---3---3-3-|--3---3-3-3-3---|
D||0-------0-----0-|7-------7-------|----------------|----------------|
A||----------------|----------------|----------------|----------------|
E||----------------|----------------|3-------3-----3-|--3---3-3-3-3---|

e||3---3-----3-----|----5-----5-----|----------------|----------------|
B||3---3-----3-----|----8-----8-----|----6---6-6-----|----6-----6-6---|
G||3---3-----3-----|----6-----6-----|----7---7-7-----|----7-----7-7---|
D||----------------|----------------|----7---7-7-----|----7-----7-7---|
A||----------------|----------------|5-----5-5-------|----------------|
E||3-----3-3-----3-|5-----5-5-----5-|--------------5-|6-----6-6-------|
סוף חלק 1  :||                                                     

e||----------------|----------------|----------------|8---8-------6---|
B||8---8---8-8-----|5---5---6-6-----|6---6-6---------|6---6-------6---|
G||8---8---8-8-----|7---7---6-6-----|7---7-7---------|6---6-------6---|
D||8---8---8-8-----|5---5---5-5-----|7---7-7---------|----------------|
A||6-----6-6-6-----|----------------|5-------5-------|0---0-----------|
E||----------------|5-----5---------|----------------|----------------|
פזמון| סוף חלק 2                               

e||----------------|------1-1-1-1---||3---3---3-3-----|----------------|
B||6---6-----6---6-|--6---3-3-3-3---||3---3---3-3---5-|5---5---5-5---1-|
G||7---7-----7---7-|--7---2-2-2-2---||3---3---3-3---3-|3---3---3-3---2-|
D||7---7-----7---7-|--7---0-0-0-0---||--------------5-|5---5---5-5---2-|
A||5-----5-5-----5-|----------------||--------------3-|3---3---3-3-----|
E||----------------|----------------||3-------3-------|--------------1-|

e||----------------|0-3-------------|3---3---3-3-----|----------------|
B||1---1-1-1-1-----|1-1-------------|3---3---3-3---5-|5---5---5-5---1-|
G||2---2-2-2-2---2-|2-2-------2-----|3---3---3-3---3-|3---3---3-3---2-|
D||2---2-2-2-2---2-|----------2-----|--------------5-|5---5---5-5---2-|
A||----------------|----------------|--------------3-|3---3---3-3-----|
E||--------1-----1-|----------1-----|3-------3-------|--------------1-|

e||----------------|----------------|2---2-----2-----|----------------|
B||1---1-1-1-1-----|----------------|2---2-----2---4-|4-4---4-4---4---|
G||2---2-2-2-2---2-|--2---2-2-2-2---|2---2-----2---2-|2-2---2-2---2---|
D||2---2-2-2-2---2-|--2---2-2-2-2---|--------------4-|4-4---4-4---4---|
A||----------------|----------------|--------------2-|2-2---2-2---2---|
E||--------1-----1-|------1-----1---|2-----2-2-------|----------------|

e||2-2---2-----2---|----------------|3---3-----3---3-|3---3-3-3-3-----|
B||2-2---2-----2---|4---4-4---4-4---|3---3-----3---3-|3---3-3-3-3-----|
G||2-2---2-----2---|2---2-2---2-2---|4---4-----4---4-|3---3-3-3-3-----|
D||----------------|4---4-4---4-4---|----------------|----------------|
A||----------------|2---2-2-------2-|----------------|----------------|
E||2-2-----2-2-----|----------------|3-----3-3-------|------3-3-------|

e||2---2-2-3-------|--1---------0---||
B||2---2-2---------|--3---------2---||
G||2---2-2-------2-|--1---------0---||
D||----------------|----------------||
A||--------2-------|1---1---0-------||
E||2---------------|----------------||
מעבר:
Bbmaj7 Dm A7 Gm x4

-
מעבר:
Bbmaj7 Dm A7 Gm x4

סיום:
A7 Gm Bbmaj7 Dm x4
More songs of ליאור ייני:
More songs from the category שירים מוכרים:
גן חיות - ירח כחול
ריטה - האם אתה מאושר
אייל גולן - צליל מיתר
ריטה - שביל הבריחה
יהודה פוליקר - זה הילד שבך